E-Chords
Kate Bush

Wuthering heights/ solo(Tabs)

Kate Bush

e------------------------------------------------------------------------| 
B--14---16b18--14---16b18---14----16b18-----------------------11--14b16--| 
G-------------------------------------------13--10---10--13--------------| 
D------------------------------------------------------------------------| 
A------------------------------------------------------------------------| 
E------------------------------------------------------------------------| 
 
e--------------11--13-11-9---------------------------------------| 
B----------------------------11-------------------------11-14b16-| 
G------------------------------------13----10---10--13-----------| 
D----------------------------------------------------------------| 
A----------------------------------------------------------------| 
E----------------------------------------------------------------| 

roll up this ad to continue

share this page

See Also: