E-Chords
Kasabian

Switchblade Smiles(Tabs)

Kasabian

Intro: 0.00 - 0.44 

e|--------------------------------------------------------------------------| 
B|--------------------------------------------------------------------------| 
G|--------------------------------------------------------------------------| 
D|--------------------------------------------------------------------------| 
A|---5h8p5--5h8p5--5h8p5--5h8p5--5h8p5--------------------------------------| 
D|--------------------------------------------------------------------------| 

0.45 - 0.59 

e|--------------------------------------------------------------------------| 
B|--------------------------------------------------------------------------| 
G|--------------------------------------------------------------------------| 
D|--------------------------------------------------------------------------| 
A|----5--555-555-6---5--555-555-6---5--555-555-6----------------------------| 
D|----0-------------0-------------0-----------------------------------------| 

1.08 - 1.25                    1.26
 
e|--------------------------------------------------------------------------| 
B|--------------------------------------------------------------------------| 
G|--------------------------------------------------------------------------| 
D|--------------------------------------------------------------------------| 
A|----5-5-3-5-5-3-5/6----------5-3-5-3-5-3-5-3------------------------------| 
D|--------------------------------------------------------------------------| 

1.50 - 2.24 

e|--------------------------------------------------------------------------| 
B|--------------------------------------------------------------------------| 
G|---7-7-7-7---3-3---10-----------------------------------------------------| 
D|---7-7-7-7---3-3---10-----------------------------------------------------| 
A|---5-5-5-5---1-1----8\7---------------------------------------------------| 
D|--------------------------------------------------------------------------| 

2.25 - 3.01 
Play these chords throughout 

e|--------------------------------------------------------------------------| 
B|--------------------------------------------------------------------------| 
G|----7---3-----------------------------------------------------------------| 
D|----7---3---5-------------------------------------------------------------| 
A|----5---1---5-------------------------------------------------------------| 
D|------------5-------------------------------------------------------------| 

3.02 - 3.19 

e|--------------------------------------------------------------------------| 
B|--------------------------------------------------------------------------| 
G|---7-7-7-7---3-3---10-----------------------------------------------------| 
D|---7-7-7-7---3-3---10-----------------------------------------------------| 
A|---5-5-5-5---1-1----8\7---------------------------------------------------| 
D|--------------------------------------------------------------------------| 

e|--------------------------------------------------------------------------| 
B|--------------------------------------------------------------------------| 
G|-----2~~~--3--3h5\2-------------------------------------------------------| 
D|--------------------------------------------------------------------------| 
A|--------------------------------------------------------------------------| 
D|--------------------------------------------------------------------------| 

3.20   

e|--------------------------------------------------------------------------| 
B|--------------------------------------------------------------------------| 
G|--------------------------------------------------------------------------| 
D|---------------------5-5-3-5-5-3-5/6--5-5-3-5-5-3-5/6---------------------| 
A|---5-5-3-5-5-3-5/6------------------------------------5-5-3-5-5-3-5/6-----| 
D|--------------------------------------------------------------------------| 
 

roll up this ad to continue

share this page

See Also: