E-Chords
Kasabian

Fast Fuse(Tabs)

Kasabian

Key: F#m
Intro: 
        (2x) 
E|----------|----------------------| 
B|----------|----------------------| 
G|----------|---4-3----------------| 
D|---4-3----|-------4--------------| 
A|-------4--|-2--------------------| 
E|2---------|----------5-7-4-4-4-5-| 

Riff 1: 
E|---------------------------------------------------------------------------| 
B|---------------------------------------------------------------------------| 
G|---------------------------------------------------------------------------| 
D|------------------------------------------0-2-0---0----------0-2-0---0-----| 
A|-----0-2-0---0----------0-2-0---0-----2-2-------2---2-2--2-2-------2---2-2-| 
E|-2-2-------2---2-2--2-2-------2---2-2--------------------------------------| 

Riff 2: 
E|-14-14-14-14-14-14-14-14-14-14-12-14---------------------------------------| 
B|-------------------------------------14-14----------------------------12---| 
G|-------------------------------------------11-11-11-11-11-11-11-11-11----11| 
D|---------------------------------------------------------------------------| 
A|---------------------------------------------------------------------------| 
E|---------------------------------------------------------------------------| 

E|-------------------------------14----14-14-14-14-14-14-14-14-14-14-| 
B|-12-12-12-12-12-12-12-12-12-12----12-------------------------------| 
G|-------------------------------------------------------------------| 
D|-------------------------------------------------------------------| 
A|-------------------------------------------------------------------| 
E|-------------------------------------------------------------------| 

Riff 3: 
('Gold lighting in the sky') 
E|-----------------------------------------| 
B|-----------------------------------------| 
G|-----------------------------------------| 
D|-----------------------------------------| 
A|---------------------------0-2-0---------| 
E|-2-2-2-2-2-2-2-2-2-2-2-2-2-------2-2-2-2-| 

Riff 1: (verso) 

( F#m  Bm ) (2x) 

F#m         D      Bm   C# 
The vultures circle round 
F#m         D      Bm  C# 
They wait above the ground 
Riff 1: (verso) 

Riff 3: ('Gold lighting in the sky') 

Riff 1: (verso) 

Riff 4: 
('Heaven may come and heaven may call but I won't be there') 
E|---------------------------------------------------------| 
B|---------------------------------------------------------| 
G|-9-11-11-11-11-9-11-11-11-11-9-11-11-11-11-9-11-11-11-11-| 
D|---------------------------------------------------------| 
A|---------------------------------------------------------| 
E|---------------------------------------------------------| 

E|--------------------------------------------------------------------| 
B|-10-12-12-12-12-10-12-12-12-12-10-12-12-12-12-12b-12b-12b-12b-10----| 
G|-----------------------------------------------------------------11-| 
D|--------------------------------------------------------------------| 
A|--------------------------------------------------------------------| 
E|--------------------------------------------------------------------| 
 

roll up this ad to continue

share this page

See Also: