E-Chords
Kasabian

Eez-eh(Tabs)

Kasabian

Tuning: standard 

Verse/main theme(palm muted): 
e|---------------------------------------------------------------------------| 
B|---------------------------------------------------------------------------| 
G|---------------------------------------------------------------------------| 
D|----------------------------------5-5-5-5----------------------------------| 
A|-7-7--7-7--7-7--7-7--7-7--7-7--7-------------------------------------------| 
E|---------------------------------------------------------------------------| 

Chorus: 
e|-12-12--12-12--12-12--12-12--12-12--12-12--12--15-15-15-15-----------------| 
B|-12-12--12-12--12-12--12-12--12-12--12-12--12--15-15-15-15-----------------| 
G|---------------------------------------------------------------------------| 
D|---------------------------------------------------------------------------| 
A|---------------------------------------------------------------------------| 
E|---------------------------------------------------------------------------| 

e|-12-12--12-12--12-12--12-12--6-6--6-6--5-5--3-3----------------------------| 
B|-12-12--12-12--12-12--12-12--6-6--6-6--5-5--3-3----------------------------| 
G|---------------------------------------------------------------------------| 
D|---------------------------------------------------------------------------| 
A|---------------------------------------------------------------------------| 
E|---------------------------------------------------------------------------| 

Post-Chorus(repeats): 
e|---------------------------------------------------------------------------| 
B|---------------------------------------------------------------------------| 
G|---------------------------------------------------------------------------| 
D|---------------------------------------------------------------------------| 
A|---------------------------------------------------------------------------| 
E|-6--5-3-------------------------------------------------------------------| 

************************************ 

| /   slide up 
| \   slide down 
| h   hammer-on 
| p   pull-off 
| ~   vibrato 
| +   harmonic 
| x   Mute note 
| b   Bend 
| pb  Pre-bend 
| br  Bend release 
| pbr Pre-bend release 
| brb Bend release bend 

************************************ 

roll up this ad to continue

share this page

See Also: