E-Chords
Kasabian

Acid Turkish Bath Shelter From The Storm(Tabs)

Kasabian

Key: C
Song: Acid Turkish Bath (Shelter From the Storm) 
Artist: Kasabian 
Album: Velociraptor! 

Intro: 
 C 
|---------------------|--------------------------------------------------| 
|---------------------|--------------------------------------------------| 
|---------------------|--------------------------------------------------| 
|--10~--10~----10-10--|--10~---10-10------10~---10-10------10~---10-10---| 
|--10~--10~----10-10--|--10~---10-10------10~---10-10------10~---10-10---| 
|--8~---8~-----8--8---|--8~----8--8-------8~----8--8-------8~----8--8----| 


  Bb C             Bb C         C# 
|-----------------------------------| 
|-----------------------------------| 
|-----------------------------------| 
|--8-10---10-10----8-10-10---10-11--| 
|--8-10---10-10----8-10-10---10-11--| 
|--6-8----8--8-----6-8--8----8--9---| 




   C      C#        
|---------------| 
|---------------| 
|---------------| 
|--10------11---| 
|--10------11---| 
|--8-------9----| 
  
 C      C#       C    
'Cotton mouth is bleeding,  
 C      C#       C 
 one way glass deceiving' 



 Cm       Bb 
|------------| 
|------------| 
|--8------7--| 
|--10-----8--| 
|--10-----8--| 
|--8------6--| 

Cm 
Dope me up on women and credit cards 
Promise X-Ray vision and fancy cars 
The tables set for the bourgeois 
Bb 
Better get in line with your dinner tray 
Cm 
Cause when its all ran out and its just you left 
With the nut job swigging his crystal meth 
And theres a constant ring of machinery 
Bb 
Is there a place for me in history? 


Cm       Bb 
|------------| 
|------------| 
|--8------7--| 
|--10-----8--| 
|--10-----8--| 
|--8------6--| 

Cm                      Bb 
Sending the boys away, leaving them out to play 
Cm                      Bb 
Throwing them miles away, now its another day 
(To shelter from the storm) 
Cm                      Bb 
Sending the boys away, leaving them out to play 
Cm                      Bb 
Throwing them miles away, wishing for new years day 
(To shelter from the storm) 


  Bb C             Bb C         c# 
|-----------------------------------| 
|-----------------------------------| 
|-----------------------------------| x4 
|--8-10---10-10----8-10-10---10-11--| 
|--8-10---10-10----8-10-10---10-11--| 
|--6-8----8--8-----6-8--8----8--9---| 


 Interlude: 
|----------------------------------------------8--8--8--8---| 
|----------------------------------------------8--8--8--8---| 
|----------------------------------------------8--8--8--8---| x2 
|--8/-10-10-10------8-8--11-11-11-11---8-8--10-10-10-10-10--| 
|--8/-10-10-10------8-8--11-11-11-11---8-8--10-10-10-10-10--| 
|--6/-8--8--8-------6-6--9--9--9--9----6-6--8--8--8--8--8---| 




  Cm       D#     Bb     G#                        
|--8--------------6------4---| 
|--8-------8------6------4---| 
|--8-------8------7------5---| 
|--10------8------8------6---| 
|--10------6------8------6---| 
|--8-------x------6------4---| 
          
Cm       D#             Bb        G#                                         
We gotta break down the doors and shelter from the storm 





End: 
|----------------------------------------------8--8--8--8---| 
|----------------------------------------------8--8--8--8---| 
|----------------------------------------------8--8--8--8---| x2 
|--8/-10-10-10------8-8--11-11-11-11---8-8--10-10-10-10-10--| 
|--8/-10-10-10------8-8--11-11-11-11---8-8--10-10-10-10-10--| 
|--6/-8--8--8-------6-6--9--9--9--9----6-6--8--8--8--8--8---| 


x2: 
   Cm                           Bb 
|-------------------------------------------------------| 
|-------------------------------------------------------| 
|------8---8----10----8----8---------7---7---8---7---7--| 
|----10--10--10----10---10---------8---8---8---8---8----| 
|-------------------------------------------------------| 
|--8-----------------------------6----------------------| 


   Cm                           Bb 
|-------------------------------------------------------| 
|----------------------------------------------------6--| 
|------8---8----10----8----8---------7---7---7---8------| 
|----10--10--10----10---10---------8---8---8---8---8----| 
|-------------------------------------------------------| 
|--8-----------------------------6----------------------| 

the tab is not 100% correct. 
David-Argentina 

roll up this ad to continue

share this page

See Also: