E-Chords
Karla DeVito

We Are Not Alone(Tabs)

Karla DeVito

roll up this ad to continue

Key: C5
We Are Not Alone 
by Karla DeVito 
from the breakfast club soundtrack 
STANDARD TUNING 
 
~ - let ring 
/ - slide 
v - vibrate 
b - bend 
 
Sythesizer in intro 
|-----------| 
|-----------| 
|-----------| Let a C5 chord ring and then go 
|-----------| to below riff 
|--1-3------| 
|------1-3--| 
 
Guitar in Intro 
|------------   ------- 
|------------   ------- 
|------------x3 --8-8-- 
|--8-8-/-10~-   --8-8-- 
|--8-8-/-10~-   --6-6-- 
|--6-6-/--8~-   ------- 
 
Verse 
|-----| |---------------------- 
|-----| |---------------------- 
|-----| |-----------------8-8--repeat 
|-----| |--10~--8-8-/-10--8-8-- 
|--3--| |--10~--8-8-/-10--6-6-- 
|--1--| |---8~--6-6-/--8------- 
 
Pre-Chorus x2 ('If we dare expose our hearts') 
|-----| |-----| 
|-----| |-----| 
|--8--| |-10--| 
|--8--| |-10--| 
|--6--| |--8--| 
|-----| |-----| 
 
Chorus 
|-----------------| 
|-----------------| 
|------8--10------| 
|--10--8--10--10--| 
|--10--6---8--10--| 
|---8----------8--| 
 
Verse 2 Fills 
|-13-13-13-13-  ------  --10b-- 
|-------------  ------  ------- 
|-------------  --5v--  ------- 
|-------------  ------  ------- 
|-------------  ------  ------- 
|-------------  ------  ------- 
use tremolo here 
 
After 2nd Chorus (Before Solo) 
|-----| 
|-----| 
|-----| 
|-----| 
|--3--| 
|--1--| 
 
Play Chorus during Solo 
 
 
 
 
share this page

See Also: