E-Chords
Kanye West

Roses(Tabs)

Kanye West

roll up this ad to continue

Enjoy! 

e|-------------------------6---------6--------------------4----------6---------------5-| 
B|-----6--------6---------6---------4---------7----------4----------6---7p6----6----6--| 
G|----6--------6---------6---------6---------8----------4----------6----------5----8---| 
D|---8--------7---------6---------5---------9----------6----------8----------7----7----| 
A|--8--------8-------------------------------------------------------------------------| 
E|-------------------------------------------------------------------------------------| 

e|-------------------------6---------6--------------------4----------6---------------5-| 
B|--------------6---------6---------4---------7----------4----------6---7p6----6----6--| 
G|----6--------6---------6---------6---------8----------4----------6----------5----8---| 
D|---8--------7---------6---------5---------9----------6----------8----------7----7----| 
A|--8--------8-------------------------------------------------------------------------| 
E|-------------------------------------------------------------------------------------| 
share this page

See Also: