E-Chords
Kanye West

Black Skinhead(Tabs)

Kanye West

roll up this ad to continue

So, here's my take on Black Skinhead.  It's pretty close to the synth in the song. 

This is just the intro, but really that's all there is to it.  This is the basic  
structure and anything else in the song is based on this. 

You can either play it with single notes or with power chords, both of which are included. 

Enjoy! 

e|--------------------------------------------------| 
B|--------------------------------------------------| 
G|--------------------------------------------------| 
D|--------------------------------------------------| 
A|--------------------------------------------------| 
E|-5-5-8-10-3-3-6-5-1-------------------------------| 

e|--------------------------------------------------| 
B|--------------------------------------------------| 
G|--------------------------------------------------| 
D|-7-7-10-12-5-5-8-7-3------------------------------| 
A|-7-7-10-12-5-5-8-7-3------------------------------| 
E|-5-5-8--10-3-3-6-5-1------------------------------| 
share this page

See Also: