E-Chords
July Talk

Headsick(Tabs)

July Talk

Intro x2 

Overdriven 
e|-7-7-7-7-7-7-7-7-7-| 
B|8-8-8-8-8-7-7-5-5--| 
G|-------------------| 
D|-------------------| 
A|-------------------| 
E|-------------------| 

Interlude x 4 
Overdriven 
e|7-7-7-7-7-7-7-7-7-7-7-7-7-7-7-7| 
B|8-8-8-8-8-8-8-8-8-8-8-8-7-7-7-7| 
G|-------------------------------| 
D|-------------------------------| 
A|-------------------------------| 
E|-------------------------------| 

Verse x 8 
Palm Muted 
e|-------------------------------| 
B|-------------------------------| 
G|-------------------------------| 
D|5-5-5-5-5-5-5-5-5-5-5-5-5-4-4-4| 
A|-------------------------------| 
E|-------------------------------| 

Chorus 
Overdriven 
e|7-7-7-7-7-7-7-7-7-7-7-7-7-7-7-7| 
B|8-8-8-8-8-8-8-8-8-8-8-8-7-7-7-7| 
G|-------------------------------| 
D|-------------------------------| 
A|-------------------------------| 
E|-------------------------------| 

Verse x 8 
Palm Muted 
e|-------------------------------| 
B|-------------------------------| 
G|-------------------------------| 
D|5-5-5-5-5-5-5-5-5-5-5-5-5-4-4-4| 
A|-------------------------------| 
E|-------------------------------| 

Bridge 

Post Bridge 
Overdriven 
e|-7-7-7-7-7-7-7-7-7-| 
B|8-8-8-8-8-7-7-5-5--| 
G|-------------------| 
D|-------------------| 
A|-------------------| 
E|-------------------| 

Outro 
Overdriven 
e|7-7-7-7-7-7-7-7-7-7-7-7-7-7-7-7| 
B|8-8-8-8-8-8-8-8-8-8-8-8-7-7-7-7| 
G|-------------------------------| 
D|-------------------------------| 
A|-------------------------------| 
E|-------------------------------| 

roll up this ad to continue

share this page

See Also: