E-Chords
Julie Doiron

Will You Still Love Me In December(Tabs)

Julie Doiron

Julie plays this song live without a capo, but in David Bazan's cover, he puts it on the 6th fret. 
Both of them finger pick the notes, so thumb plays bass notes and index and middle fingers play the  
accompaniment. 

verse 1 

e|--------------------------------------------------------------| 
B|------2------0-------2-------0-------2------0-------2----0----| 
G|------2------2-------2-------2-------2------2-------2----2----| 
D|---------------------------------0----------------------------| 
A|--------------------------------------------------------------| 
E|--2--------------0------------------------------2-------------| 

Will you still love me in December? 
I could sleep many days, and it 
Wouldn't make a difference 

Chorus 

e|---------------------------------------------------------------| 
B|------2-------2---------2--------2----0----------2----0--------| 
G|------2-------2---------2--------2----2----------2----2--------| 
D|----------0----------------------------------------------------| 
A|--0------------------------------------------------------------| 
E|-------------------0---------2--------------2------------------| 

Without you 
Without you 


verse 2 

e|--------------------------------------------------------------| 
B|------2------0-------2-------0-------2------0-------2----0----| 
G|------2------2-------2-------2-------2------2-------2----2----| 
D|---------------------------------0----------------------------| 
A|--------------------------------------------------------------| 
E|--2--------------0------------------------------2-------------| 

Seems I have forgotten it all 
What was to forget 
So you finally said I could leave, but I 
didn't want to leave then 


Chorus 

e|---------------------------------------------------------------| 
B|------2-------2---------2--------2----0----------2----0--------| 
G|------2-------2---------2--------2----2----------2----2--------| 
D|----------0----------------------------------------------------| 
A|--0------------------------------------------------------------| 
E|-------------------0---------2--------------2------------------| 

Without you 
Without you 

verse 3 
e|--------------------------------------------------------------| 
B|------2------0-------2-------0-------2------0-------2----0----| 
G|------2------2-------2-------2-------2------2-------2----2----| 
D|---------------------------------0----------------------------| 
A|--------------------------------------------------------------| 
E|--2--------------0------------------------------2-------------| 

Will you still love me in December? 
I could sleep many days, and it 
wouldn't make a difference, 

Chorus 
e|---------------------------------------------------------------| 
B|------2-------2---------2--------2----0----------2----0--------| 
G|------2-------2---------2--------2----2----------2----2--------| 
D|----------0----------------------------------------------------| 
A|--0------------------------------------------------------------| 
E|-------------------0---------2--------------2------------------| 

Without you 
Without you 

roll up this ad to continue

share this page

See Also: