E-Chords
Julie Andrews

Doe A Deer(Tabs)

Julie Andrews

roll up this ad to continue

Key: C
e|---------------------------------------| 
B|---------------------------------------| 
G|---------------------------------------| 
D|---------------------------------------| 
A|--3------------------------------------|                               
E|---------------------------------------| 
    Doe, a deer, a female deer 
    (C) 

e|---------------------------------------| 
B|---------------------------------------| 
G|---------------------------------------| 
D|----0----------------------------------| 
A|---------------------------------------|                               
E|---------------------------------------| 
     Ray, a drop of golden sun 
     (D) 

e|---------------------------------------| 
B|---------------------------------------| 
G|---------------------------------------| 
D|----2----------------------------------| 
A|---------------------------------------|                               
E|---------------------------------------| 
     Me, a name I call myself 
     (E) 

e|---------------------------------------| 
B|---------------------------------------| 
G|---------------------------------------| 
D|----3----------------------------------| 
A|---------------------------------------|                               
E|---------------------------------------| 
     Far, a long long way to run 
     (F) 

e|---------------------------------------| 
B|---------------------------------------| 
G|----0----------------------------------| 
D|---------------------------------------| 
A|---------------------------------------|                               
E|---------------------------------------| 
     Sew, a needle pulling thread 
     (G) 

e|---------------------------------------| 
B|---------------------------------------| 
G|----2----------------------------------| 
D|---------------------------------------| 
A|---------------------------------------|                               
E|---------------------------------------| 
      La, a note to follow so 
     (A)   

e|---------------------------------------| 
B|--0------------------------------------| 
G|---------------------------------------| 
D|---------------------------------------| 
A|---------------------------------------|                               
E|---------------------------------------| 
   Tea,a drink with jam and bread 
   (B) 

e|---------------------------------------| 
B|--------------------------1------------| 
G|---------------------------------------| 
D|---------------------------------------| 
A|---------------------------------------|                               
E|---------------------------------------| 
That will bring us back to Doe.  
                           (C) 
share this page

See Also: