E-Chords
Juizo Final

O Diabo É Do Tipo Amigo Da Onça(Tabs)

Juizo Final

E|----------------------------|-----------------------------  | 
B|----------------------------|-----------------------------  | 
G|----------------------------|-----------------------------  | 
D|----7--7--7--7--7--7--7--7--|--8--8--8--8--8--8--8--8-----  | 
A|----5--5--5--5--5--5--5--5--|--5--5--5--5--5--5--5--5-----  | 
E|----------------------------|-----------------------------  | 
 


Refrão: (4x) 

 
E|------------------------------------------------------------  | 
B|------------------------------------------------------------  | 
G|----------------------------------------7--5----------------  | 
D|--------------------3--------------------------7--5---------  | 
A|----3--5-----3--5------5----------3--5----------------8-----  | 
E|----------3-------------------5-----------------------------  | 
 
 
E|------------------------------------------------------------  | 
B|------------------------------------------------------------  | 
G|----------------------------------------7-6-5---------------  | 
D|--------------------3--------------------------7-6-5--------  | 
A|----3--5-----3--5------5----------3--5----------------8-----  | 
E|----------3-------------------5-----------------------------  | 

roll up this ad to continue

share this page

See Also: