E-Chords
Juice Newton

Queen Of Hearts(Tabs)

Juice Newton

Key: E
QUEEN OF HEARTS 

As recorded by Juice Newton 
(From the 1981 Album JUICE) 

Words and Music by Hank DeVito 

Transcribed by Slowhand 


Gtr I (E A D G B E) - 'Robert Otha Young - Electric Guitar' 
Gtr II (E A D G B E) - 'Juice Newton - Acoustic Guitar' 
Gtr III (E A D G B E) - 'Chuck Martin - Electric Guitar' 


 Intro 
  Q=166 
  N.C.                D               N.C.                G 
 4/4 
  Gtr I (El. Gtr.) 
  PM------------------------------------------------------------------| 
  E E E E E E E E   E E E E E E E E   E E E E E E E E   E E E E E E E E 
|-----------------|-----------------|-----------------|-----------------| 
|-----------------|-----------------|-----------------|-----------------| 
|-----------------|-----------------|-----------------|-----------------| 
|-----------------|-----------------|-----------------|-----------------| 
|-----------------|-5-5-5-5-5-5-5-5-|---------5-5-5-5-|-----------------| 
|-5-5-5-5-3-3-3-3-|-----------------|-5-5-5-5---------|-3-3-3-3-3-3-3-3-| 
| 
| Gtr II (Ac. Gtr.) 
| W                 E E E E E E E E   W                 E E E E E E E E 
|-----------------|---2-2-2-2-2-2-2-|-----------------|---3-3-3-3-3-3-3-| 
|-----------------|---3-3-3-3-3-3-3-|-----------------|---0-0-0-0-0-0-0-| 
|-----------------|---2-2-2-2-2-2-2-|-----------------|---0-0-0-0-0-0-0-| 
|-----------------|---0-0-0-0-0-0-0-|-----------------|---0-0-0-0-0-0-0-| 
|-----------------|-----------------|-----------------|---2-2-2-2-2-2-2-| 
|-----------------|-----------------|-----------------|---3-3-3-3-3-3-3-| 


  N.C.                D               N.C.                D 
  PM------------------------------------------------------------------| 
  E E E E E E E E   E E E E E E E E   E E E E E E E E   E E E E E E E E 
|-----------------|-----------------|-----------------|------------------| 
|-----------------|-----------------|-----------------|------------------| 
|-----------------|-----------------|-----------------|------------------| 
|-----------------|-----------------|-----------------|------------------| 
|-----------------|-5-5-5-5-5-5-5-5-|-----------------|-5-5-5-5-5-5-5-5--| 
|-3-3-3-3-5-5-5-5-|-----------------|-3-3-3-3-5-5-5-5-|------------------| 
| 
| W                 E E E E E E E E   W                 E E E E E E E E 
|-----------------|---2-2-2-2-2-2-2-|-----------------|---2-2-2-2-2-2-2--| 
|-----------------|---3-3-3-3-3-3-3-|-----------------|---3-3-3-3-3-3-3--| 
|-----------------|---2-2-2-2-2-2-2-|-----------------|---2-2-2-2-2-2-2--| 
|-----------------|---0-0-0-0-0-0-0-|-----------------|---0-0-0-0-0-0-0--| 
|-----------------|-----------------|-----------------|------------------| 
|-----------------|-----------------|-----------------|------------------| 


                   1st - 3rd Verses 
                $ 
                    N.C. 
                    PM------------------------------------------------| 
  Q  e E Q  Q       E E E E E E E E   E E E E E E E E   E E E E E E E E 
|---------------||------------------|-----------------|------------------| 
|----7----------||o-----------------|-----------------|------------------| 
|----7----------||------------------|-----------------|------------------| 
|----7----------||------------------|-----------------|------------------| 
|-5----5-5------||o-5-5-5-5-5-5-5-5-|-5-5-5-5-5-5-5-5-|-5-5-5-5-5-5-5-5--| 
|-----------5\--||------------------|-----------------|------------------| 


                                                        C/G 
  PM------------------------------------------------| 
  E E E E E E E E   E E E E E E E E   E E E E E E E E   Q  E E E E E E 
|-----------------|-----------------|-----------------|-----------------| 
|-----------------|-----------------|-----------------|----1-0---1-0----| 
|-----------------|-----------------|-----------------|----0-0---0-0----| 
|-----------------|-----------------|-----------------|----2-0---2-0----| 
|-5-5-5-5-5-5-5-5-|-5-5-5-5-5-5-5-5-|-5-5-5-5---------|-----------------| 
|-----------------|-----------------|---------0-0-2-2-|-3---------------| 


                   N.C. 
                   PM------------------------------------------------| 
  Q  E E E E E E   E E E E E E E E   E E E E E E E E   E E E E E E E E 
|----------------|-----------------|-----------------|------------------| 
|----1-0---1-0---|-----------------|-----------------|------------------| 
|----0-0---0-0---|-----------------|-----------------|------------------| 
|----2-0---2-0---|-----------------|-----------------|------------------| 
|----------------|-5-5-5-5-5-5-5-5-|-5-5-5-5-5-5-5-5-|-5-5-5-5-5-5-5-5--| 
|----------------|-----------------|-----------------|------------------| 


                                                        C/G 
  PM------------------------------------------------| 
  E E E E E E E E   E E E E E E E E   E E E E E E E E   Q  E E E E E E 
|-----------------|-----------------|-----------------|-----------------| 
|-----------------|-----------------|-----------------|----1-0---1-0----| 
|-----------------|-----------------|-----------------|----0-0---0-0----| 
|-----------------|-----------------|-----------------|----2-0---2-0----| 
|-5-5-5-5-5-5-5-5-|-5-5-5-5-5-5-5-5-|-5-5-5-5---------|-----------------| 
|-----------------|-----------------|---------0-0-2-2-|-3---------------| 


                   Chorus 
                    N.C.                D               N.C. 
                    PM------------------------------------------------| 
  Q  E E E E E E    E E E E E E E E   E E E E E E E E   E E E E E E E E 
|----------------||-----------------|-----------------|------------------| 
|----1-0---1-0---||-----------------|-----------------|------------------| 
|----0-0---0-0---||-----------------|-----------------|------------------| 
|----2-0---2-0---||-----------------|-----------------|------------------| 
|----------------||-----------------|-5-5-5-5-5-5-5-5-|---------5-5-5-5--| 
|----------------||-5-5-5-5-3-3-3-3-|-----------------|-5-5-5-5----------| 
| 
| Gtr II 
| W                 W                 E E E E E E E E   W 
|----------------||-----------------|---2-2-2---2-2-2-|------------------| 
|----------------||-----------------|---3-3-3---3-3-3-|------------------| 
|----------------||-----------------|---2-2-2---2-2-2-|------------------| 
|----------------||-----------------|---0-0-0---0-0-0-|------------------| 
|----------------||-----------------|-----------------|------------------| 
|----------------||-----------------|-----------------|------------------| 


    G               N.C.                D               N.C. 
  PM------------------------------------------------------------------| 
  E E E E E E E E   E E E E E E E E   E E E E E E E E   E E E E E E E E 
|-----------------|-----------------|-----------------|------------------| 
|-----------------|-----------------|-----------------|------------------| 
|-----------------|-----------------|-----------------|------------------| 
|-----------------|-----------------|-----------------|------------------| 
|-----------------|-----------------|-5-5-5-5-5-5-5-5-|------------------| 
|-3-3-3-3-3-3-3-3-|-3-3-3-3-5-5-5-5-|-----------------|-3-3-3-3-5-5-5-5--| 
| 
| E E E E E E E E   W                 E E E E E E E E   W 
|---3-3-3---3-3-3-|-----------------|---2-2-2---2-2---|------------------| 
|---0-0-0---0-0-0-|-----------------|---3-3-3---3-3---|------------------| 
|---0-0-0---0-0-0-|-----------------|---2-2-2---2-2---|------------------| 
|---0-0-0---0-0-0-|-----------------|---0-0-0---0-0---|------------------| 
|---2-2-2---2-2-2-|-----------------|-----------------|------------------| 
|---3-3-3---3-3-3-|-----------------|-----------------|------------------| 


           To Coda 
    D                N.C.                D               N.C. 
  PM-------------------------------------------------------------------| 
  E E E E E E E E    E E E E E E E E   E E E E E E E E   E E E E E E E E 
|------------------|-----------------|-----------------|-----------------| 
|------------------|-----------------|-----------------|-----------------| 
|------------------|-----------------|-----------------|-----------------| 
|------------------|-----------------|-----------------|-----------------| 
|-5-5-5-5-5-5-5-5--|-----------------|-5-5-5-5-5-5-5-5-|---------5-5-5-5-| 
|------------------|-5-5-5-5-3-3-3-3-|-----------------|-5-5-5-5---------| 
| 
| E E E E E E E E    W                 E E E E E E E E   W 
|---2-2-2---2-2----|-----------------|---2-2-2---2-2-2-|-----------------| 
|---3-3-3---3-3----|-----------------|---3-3-3---3-3-3-|-----------------| 
|---2-2-2---2-2----|-----------------|---2-2-2---2-2-2-|-----------------| 
|---0-0-0---0-0----|-----------------|---0-0-0---0-0-0-|-----------------| 
|------------------|-----------------|-----------------|-----------------| 
|------------------|-----------------|-----------------|-----------------| 


    G               N.C.                D               N.C. 
  PM------------------------------------------------------------------| 
  E E E E E E E E   E E E E E E E E   E E E E E E E E   E E E E E E E E 
|-----------------|-----------------|-----------------|------------------| 
|-----------------|-----------------|-----------------|------------------| 
|-----------------|-----------------|-----------------|------------------| 
|-----------------|-----------------|-----------------|------------------| 
|-----------------|-----------------|-5-5-5-5-5-5-5-5-|------------------| 
|-3-3-3-3-3-3-3-3-|-3-3-3-3-5-5-5-5-|-----------------|-3-3-3-3-5-5-5-5--| 
| 
| E E E E E E E E   W                 E E E E E E E E   W 
|---3-3-3---3-3-3-|-----------------|---2-2-2---2-2-2-|------------------| 
|---0-0-0---0-0-0-|-----------------|---3-3-3---3-3-3-|------------------| 
|---0-0-0---0-0-0-|-----------------|---2-2-2---2-2-2-|------------------| 
|---0-0-0---0-0-0-|-----------------|---0-0-0---0-0-0-|------------------| 
|---2-2-2---2-2-2-|-----------------|-----------------|------------------| 
|---3-3-3---3-3-3-|-----------------|-----------------|------------------| 


  1.                                 2. 
    D                                   D 
  PM------------|                     PM------------| 
  E E E E E E E E   Q  e E Q  Q       E E E E E E E E 
|-----------------|----------------||-----------------|| 
|-----------------|----7----------o||-----------------|| 
|-----------------|----7-----------||-----------------|| 
|-----------------|----7-----------||-----------------|| 
|-5-5-5-5-5-5-5-5-|-5------5------o||-5-5-5-5-5-5-5-5-|| 
|-----------------|-----------5\---||-----------------|| 
| 
| E E E E E E E E   W                 E E E E E E E E 
|---2-2-2---2-2-2-|----------------||---2-2-2---2-2-2-|| 
|---3-3-3---3-3-3-|---------------o||---3-3-3---3-3-3-|| 
|---2-2-2---2-2-2-|----------------||---2-2-2---2-2-2-|| 
|---0-0-0---0-0-0-|----------------||---0-0-0---0-0-0-|| 
|-----------------|---------------o||-----------------|| 
|-----------------|----------------||-----------------|| 


 Guitar Solo 
  N.C.                      E                 N.C. 
  Gtr III (El. Gtr.) 
    Q    E  E E  E E  E   E E E E +E  E Q     E E E E E  E E E 
|-------11-11----9----9-|---7---7-(7)-9-7---|-------------------| 
|-/12---12-12---10---10-|---9---9-(9)---9---|-7-9-7---9-10-9-9h=| 
|-/11---11-11----9----9-|---9---9-(9)---9---|-8---8---9----9-9--| 
|-----------------------|-------------------|-9---9---9----9-9h=| 
|-----------------------|-------------------|-------------------| 
|-----------------------|-------------------|-------------------| 
| 
| Gtr I 
|   PM-------------------------------------------------------| 
|   E E  E  E E  E E  E   E E E E  E  E E E   E E E E E  E E E 
|-----------------------|-------------------|-------------------| 
|-----------------------|-------------------|-------------------| 
|-----------------------|-------------------|-------------------| 
|-----------------------|-------------------|-------------------| 
|-----------------------|-7-7-7-7--7--7-7-7-|---------7--7-7-7--| 
|---7-7--7--7-5--5-5--5-|-------------------|-7-7-7-7-----------| 
| 
| Gtr II 
|   W                     E E E E  E  E E E   W 
|-----------------------|---0-0-0-----0-0-0-|-------------------| 
|-----------------------|---0-0-0-----0-0-0-|-------------------| 
|-----------------------|---1-1-1-----1-1-1-|-------------------| 
|-----------------------|---2-2-2-----2-2-2-|-------------------| 
|-----------------------|---2-2-2-----2-2-2-|-------------------| 
|-----------------------|---0-0-0-----0-0-0-|-------------------| 


     A                    N.C.                              E 
   E  E E  E  +H            E  E  +Q      E  Q     E    +E   E  Q    H 
|-----------------------|----------------------------|------12-14---12\-------| 
|-10-12---10-(10)-------|-----10-(10)-------12---/12-|-(12)----12---12\-------| 
|--9--9----9--(9)-------|--/9--9--(9)---/11-11---/13-|-(13)----13---13\-------| 
|-11-11---11-(11)-------|-/11-11-(11)---/13-13---/14-|-(14)----14---14\-------| 
|-----------------------|----------------------------|------------------------| 
|-----------------------|----------------------------|------------------------| 
| 
|  PM-----------------------------------------------------------------------| 
|  E  E E  E   E  E E E     E  E   E  E   E  E E   E     E   E  E E  E  E E E 
|-----------------------|----------------------------|------------------------| 
|-----------------------|----------------------------|------------------------| 
|-----------------------|----------------------------|------------------------| 
|-----------------------|----------------------------|------------------------| 
|-----------------------|----------------------------|---7---7--7-7--7--7-7-7-| 
|--5--5-5--5---5--5-5-5-|---7--7---7--7---5--5-5---5-|------------------------| 
| 
|  E  E E  E   E  E E E     W                            E   E  E E  E  E E E 
|-----0-0--0------0-0-0-|----------------------------|-------0--0-0-----0-0-0-| 
|-----2-2--2------2-2-2-|----------------------------|-------0--0-0-----0-0-0-| 
|-----2-2--2------2-2-2-|----------------------------|-------1--1-1-----1-1-1-| 
|-----2-2--2------2-2-2-|----------------------------|-------2--2-2-----2-2-2-| 
|-----0-0--0------0-0-0-|----------------------------|-------2--2-2-----2-2-2-| 
|-----------------------|----------------------------|-------0--0-0-----0-0-0-| 


  N.C.                             E 
    E  E  E  E   E  Q     E     E   E  E  E  Q     Q 
|---------------------------|------16-16-16-16\---12---| 
|-----10-10-10-----12---/12-|-(12)---------------------| 
|--/9--9--9--9-/11-11-------|------16-16-16-16\---13---| 
|-/11-11-11-11-/13-13-------|--------------------------| 
|---------------------------|--14----------------------| 
|---------------------------|--------------------------| 
| 
|   PM-------------------------------------------------- 
|   E  E  E  E   E  E E   E     E   E  E  E  E  E  E E 
|---------------------------|--------------------------| 
|---------------------------|--------------------------| 
|---------------------------|--------------------------| 
|---------------------------|--------------------------| 
|---------------------------|---7---7--7--7--7--7--7-7-| 
|---7--7--7--7---5--5-5---5-|--------------------------| 
| 
|   W                           E   E  E  E  E  E  E E 
|---------------------------|-------0--0--0-----0--0-0-| 
|---------------------------|-------0--0--0-----0--0-0-| 
|---------------------------|-------1--1--1-----1--1-1-| 
|---------------------------|-------2--2--2-----2--2-2-| 
|---------------------------|-------2--2--2-----2--2-2-| 
|---------------------------|-------0--0--0-----0--0-0-| 


                                               D.S. al Coda 
  N.C.                           E 
    E  E  +E   E  E  E  E  E   E   E  E  E  E  E  E   E 
|----------------------------|---/12-12-12-12-12-12---------|| 
|-----10-(10)-10----12-12-12-|---/12-12-12-12-12-12-/15b17--|| 
|--/9--9--(9)--9-11-11-11-11-|---/13-13-13-13-13-13---------|| 
|-/11-11-(11)-11-13-13-13-13-|------------------------------|| 
|----------------------------|------------------------------|| 
|----------------------------|------------------------------|| 
| 
|---------------------------------------------------| 
|   E  E   E   E  E  E  E  E   E   E  E  E  E  E  E   E 
|----------------------------|------------------------------|| 
|----------------------------|------------------------------|| 
|----------------------------|------------------------------|| 
|----------------------------|------------------------------|| 
|----------------------------|-7---7--7--7--7--7--7---7-----|| 
|---7--7---7---7--5--5--5--5-|------------------------------|| 
| 
|   W                          E   E  E  E  E  E  E   E 
|----------------------------|-----0--0--0-----0--0---0-----|| 
|----------------------------|-----0--0--0-----0--0---0-----|| 
|----------------------------|-----1--1--1-----1--1---1-----|| 
|----------------------------|-----2--2--2-----2--2---2-----|| 
|----------------------------|-----2--2--2-----2--2---2-----|| 
|----------------------------|-----0--0--0-----0--0---0-----|| 


  & 
  N.C.     C                         A 
  Gtr I 
  W          W          W          E E E E E E Q 
|----------|----------|----------|-----------------| 
|----------|----------|----------|-----------------| 
|----------|----------|----------|-----------------| 
|----------|----------|----------|-----------------| 
|----------|----------|----------|-----------------| 
|----------|----------|----------|---5-5-5-5-------| 
| 
| Gtr II 
| W          W          W          E E E E E E Q 
|----------|----------|----------|-----------------| 
|----------|----------|----------|---2-2-2-2-------| 
|----------|----------|----------|---2-2-2-2-------| 
|----------|----------|----------|---2-2-2-2-------| 
|----------|----------|----------|---0-0-0-0-------| 
|----------|----------|----------|-----------------| 


  N.C.                E               N.C.                E 
  PM------------------------------------------------------------------| 
  E E E E E E E E   E E E E E E E E   E E E E E E E E   E E E E E E E E 
|-----------------|-----------------|-----------------|------------------| 
|-----------------|-----------------|-----------------|------------------| 
|-----------------|-----------------|-----------------|------------------| 
|-----------------|-----------------|-----------------|------------------| 
|-----------------|-----------------|-----------------|-7-7-7-7-7-7-7-7--| 
|-5-5-5-5-7-7-7-7-|-0-0-0-0-0-0-0-0-|-5-5-5-5-7-7-7-7-|------------------| 
| 
| W                 E E E E E E E E   W                 E E E E E E E E 
|-----------------|---0-0-0---0-0-0-|-----------------|---0-0-0---0-0-0--| 
|-----------------|---0-0-0---0-0-0-|-----------------|---0-0-0---0-0-0--| 
|-----------------|---1-1-1---1-1-1-|-----------------|---1-1-1---1-1-1--| 
|-----------------|---2-2-2---2-2-2-|-----------------|---2-2-2---2-2-2--| 
|-----------------|---2-2-2---2-2-2-|-----------------|---2-2-2---2-2-2--| 
|-----------------|---0-0-0---0-0-0-|-----------------|---0-0-0---0-0-0--| 


  PM------------------------------------------------------------------| 
  E E E E E E E E   E E E E E E E E   E E E E E E E E   E E E E E E E E 
|-----------------|-----------------|-----------------|------------------| 
|-----------------|-----------------|-----------------|------------------| 
|-----------------|-----------------|-----------------|------------------| 
|-----------------|-----------------|-----------------|------------------| 
|-----------------|-----------------|---------7-7-7-7-|------------------| 
|-7-7-7-7-5-5-5-5-|-0-0-0-0-0-0-0-0-|-7-7-7-7---------|-5-5-5-5-5-5-5-5--| 
| 
| W                 E E E E E E E E   W                 E E E E E E E E 
|-----------------|---0-0-0---0-0-0-|-----------------|---0-0-0---0-0-0--| 
|-----------------|---0-0-0---0-0-0-|-----------------|---2-2-2---2-2-2--| 
|-----------------|---1-1-1---1-1-1-|-----------------|---2-2-2---2-2-2--| 
|-----------------|---2-2-2---2-2-2-|-----------------|---2-2-2---2-2-2--| 
|-----------------|---2-2-2---2-2-2-|-----------------|---0-0-0---0-0-0--| 
|-----------------|---0-0-0---0-0-0-|-----------------|------------------| 


  N.C.                E               N.C.                E 
  PM------------------------------------------------------------------| 
  E E E E E E E E   E E E E E E E E   E E E E E E E E   E E E E E E E E 
|-----------------|-----------------|-----------------|------------------|| 
|-----------------|-----------------|-----------------|------------------|| 
|-----------------|-----------------|-----------------|------------------|| 
|-----------------|-----------------|-----------------|------------------|| 
|-----------------|-----------------|-----------------|-7-7-7-7-7-7-7-7--|| 
|-5-5-5-5-7-7-7-7-|-0-0-0-0-0-0-0-0-|-5-5-5-5-7-7-7-7-|------------------|| 
| 
| W                 E E E E E E E E   W                 E E E E E E E E 
|-----------------|---0-0-0---0-0-0-|-----------------|---0-0-0---0-0-0--|| 
|-----------------|---0-0-0---0-0-0-|-----------------|---0-0-0---0-0-0--|| 
|-----------------|---1-1-1---1-1-1-|-----------------|---1-1-1---1-1-1--|| 
|-----------------|---2-2-2---2-2-2-|-----------------|---2-2-2---2-2-2--|| 
|-----------------|---2-2-2---2-2-2-|-----------------|---2-2-2---2-2-2--|| 
|-----------------|---0-0-0---0-0-0-|-----------------|---0-0-0---0-0-0--|| 


   Outro 
    N.C.                          E 
    Gtr III 
      E  E  E  E  E   E  E  E   E E Q   H 
||------11-11-11-11\--9--9--9-|---7-7---7\-------| 
||o-/12-12-12-12-12\-10-10-10-|---9-9---9\-------| 
||--/11-11-11-11-11\--9--9--9-|---9-9---9\-------| 
||----------------------------|------------------| 
||o---------------------------|------------------| 
||----------------------------|------------------| 
| 
|   Gtr I 
|     PM------------------------------------------ 
|     E  E  E  E  E   E  E  E   E E E E E  E E E 
||----------------------------|------------------| 
||o---------------------------|------------------| 
||----------------------------|------------------| 
||----------------------------|------------------| 
||o---------------------------|-7-7-7-7-7--7-7-7-| 
||----7--7--7--7--5---5--5--5-|------------------| 
| 
|   Gtr II 
|     W                         E E E E E  E E E 
||----------------------------|---0-0-0----0-0-0-| 
||o---------------------------|---0-0-0----0-0-0-| 
||----------------------------|---1-1-1----1-1-1-| 
||----------------------------|---2-2-2----2-2-2-| 
||o---------------------------|---2-2-2----2-2-2-| 
||----------------------------|---0-0-0----0-0-0-| 


  N.C.                E 
  W                 W                4x 
|-----------------|------------------|| 
|-----------------|-----------------o|| 
|-----------------|------------------|| 
|-----------------|------------------|| 
|-----------------|-----------------o|| 
|-----------------|------------------|| 
| 
|---------------------------------| 
| E E E E E E E E   E E E E E E E E  4x 
|-----------------|------------------|| 
|-----------------|-----------------o|| 
|-----------------|------------------|| 
|-----------------|------------------|| 
|-----------------|-----------------o|| 
|-7-7-7-7-5-5-5-5-|-0-0-0-0-0-0-0-0--|| 
| 
| W                 E E E E E E E E  4x 
|-----------------|---0-0-0---0-0-0--|| 
|-----------------|---0-0-0---0-0-0-o|| 
|-----------------|---1-1-1---1-1-1--|| 
|-----------------|---2-2-2---2-2-2--|| 
|-----------------|---2-2-2---2-2-2-o|| 
|-----------------|---0-0-0---0-0-0--|| 


Duration Legend 
--------------- 
W - whole; H - half; Q - quarter; E - 8th; S - 16th; T - 32nd; X - 64th; a - acciaccatura 
+ - note tied to previous; . - note dotted; .. - note double dotted 
Uncapitalized letters represent notes that are staccato (1/2 duration) 
Irregular groupings are notated above the duration line 
Duration letters will always appear directly above the note/fret number it represents the 
duration for.  Duration letters with no fret number below them represent rests.  Multi- 
bar rests are notated in the form Wxn, where n is the number of bars to rest for.  Low 
melody durations appear below the staff 

Tablature Legend 
---------------- 
 h   - hammer-on 
 p   - pull-off 
 b   - bend 
 pb  - pre-bend 
 r   - bend release (if no number after the r, then release immediately) 
 /\  - slide into or out of (from/to 'nowhere') 
 s   - legato slide 
 S   - shift slide 
  - natural harmonic 
n  - artificial harmonic 
n(n) - tapped harmonic 
 ~   - vibrato 
 tr  - trill 
 T   - tap 
 TP  - trem. picking 
 PM  - palm muting 
\n/  - tremolo bar dip; n = amount to dip 
 \n  - tremolo bar down 
 n/  - tremolo bar up 
/n\  - tremolo bar inverted dip 
 =   - hold bend; also acts as connecting device for hammers/pulls 
 <>  - volume swell (louder/softer) 
 x   - on rhythm slash represents muted slash 
 o   - on rhythm slash represents single note slash 

Misc Legend 
----------- 
 |  - bar 
||  - double bar 
||o - repeat start 
o|| - repeat end 
*|  - double bar (ending) 
 :  - bar (freetime) 
 $  - Segno 
 &  - Coda 
Tempo markers -  = BPM(8/16=s8/s16), where s8 = swing 8ths, s16 = swing 16ths 

roll up this ad to continue

share this page

See Also: