E-Chords
Jugs and Teddy

Walang Basagan Ng Trip(Tabs)

Jugs and Teddy

Key: F#
Intro: B-C# (2x)

	   F#		E	     F#		E 
Kung gusto kong mag-suot ng aking outfit of the day 
	F#-E 
Hey beybe 
F# 
Walang basagan ng trip 
	   F#		E	     F#		E 
Kung gusto kong picture-an ang kinain kagabi 
	F#-E 
Hey beybe 
F# 
Walang basagan ng trip 
	   B			C#		Bb 
Kung gusto kong mag-selfie at i-post sa kung saan 
	B 
Hey beybe 
C# 
Walang basagan ng trip 
	   F#		E	F#	    E 
Kung gusto kong mag-status ng walang kabuluhan 
	F#-E 
Hey beybe 
F# 
Walang basagan ng trip 

	  B 
Kung ayaw mo ng maingay, eh di wag mong pakinggan 
	   C# 
Kung gusto mong di magulat eh di wag mo nang buksan 
	  G#			   Bb 
Kung ayaw mo ng gusto ko, ito hindi sapilitan 
    B 
Hey beybe 
  C# 
Walang basagan ng trip 

Play in every Chorus F# E e|-X------------|\ Walang basagan ng trip B|-X------------| \ F# E G|-X------------| \ Play 3x Walang basagan ng trip D|-4--------2-2-| / F# E A|-4-----2-4-2--| / Walang basagan ng trip E|-2--2h6-------|/ F# Walang basagan ng trip
F# E F# E Kung gusto kong ju-mamming, ibigay mo na ang mic F#-E Hey pare F# Walang basagan ng trip F# E F# E Kung gusto kong mag-like-y like-y like-y like-y like F#-E Hey pare F# Walang basagan ng trip B Kung ayaw mo ng maingay, eh di wag mong pakinggan C# Kung gusto mong di ma-bad-trip eh di wag mo nang tignan G# Bb Kung ayaw mo ng gusto ko, ito hindi sapilitan B Hey beybe C# Walang basagan ng trip F# E Walang basagan ng trip F# E Walang basagan ng trip F# E Walang basagan ng trip
Solo: 

e|------------------------------------------------------------------| 
B|--------------------------------------------------14--------------| 
G|-b13-b13-13-11-11-------11-11------13-11-11-13-15----18b/==r\-----| 
D|--------------------\13-------11h13-------------------------------| 
A|------------------------------------------------------------------| 
E|------------------------------------------------------------------| 

e|------------------------------------------------------------------| 
B|------------------------------------------------------------------| 
G|-b13-b13-13-11-11-------11-11-------13-11-11-13--bd13-------------| 
D|--------------------\13-------11h13--------------bd11-------------| 
A|------------------------------------------------------9/----------| 
E|------------------------------------------------------------------| 
F# E F# E Kung gusto kong manligaw pwede walang basagan F#-E Hey beybe F# Ikaw talaga ang trip F# E F# E Kung ayaw mong ip-hawak pwede bang tignan na lang F#-E Hey beybe F# Walang basagan ng trip B Kung ayaw mo ng maingay, eh di wag mong pakinggan C# Kung gusto mong di ma-bad-trip eh di wag mo nang tignan G# Bb Kung ayaw mo ng gusto ko, ito hindi sapilitan B Hey beybe C# Walang basagan ng trip F# E Walang basagan ng trip F# E Walang basagan ng trip F# E Walang basagan ng trip F# Bumaba ka na lang sa jeep
N.H. - Down Stroke 
e|-----------13--------| 
B|-----------13--------|  
G|---------12----------|  
D|---------12----------|  
A|-------11------------|   
E|---------------------| 

roll up this ad to continue

share this page

See Also: