E-Chords
Juan Martin

Zorongo(Tabs)

Juan Martin

roll up this ad to continue

Watch the video lesson
Key: A
  

 1 Parte   



 e|--0--3--1--0--1--3--1h3p1-0---0--3--1--0--1--3--1h3p1-0-|  
 B|-----2---------------------------2----------------------|  
 G|-----0---------------------------0----------------------|  
 D|-----2---------------------------2----------------------|  
 A|-----0--------------0------------0--------------0-------|  
 E|--------------------------------------------------------|  



 e|----------0-----------------------0---------------------|  
 B|-2--2--3-----1--3--------2--2--3-----1--3---------------|  
 G|-------2-----0-----3--2--------2-----0-----3--2---------|  
 D|-------0-----------0--2--------------------0--2---------|  
 A|-------------3-----1--0---------------------------------|  
 E|--------------------------------------------------------|  




 e|--0--3--1--0--1--3--1h3p1-0---0--3--1--0--1--3--1h3p1-0-|  
 B|-----2---------------------------2----------------------|  
 G|-----0---------------------------0----------------------|  
 D|-----2---------------------------2----------------------|  
 A|-----0--------------0------------0--------------0-------|  
 E|--------------------------------------------------------|  



 e|----------0-----------------------0---------------------|  
 B|-2--2--3-----1--3--------2--2--3-----1--3---------------|  
 G|-------2-----0-----3--2--------2-----0-----3--2---------|  
 D|-------0-----------0--2--------------------0--2---------|  
 A|-------------3-----1--0---------------------------------|  
 E|--------------------------------------------------------|  




 2 Parte:  




 e|--------------------------------------------------------|  
 B|--------1-1------------2---------1-1------------2-------|  
 G|------0---0------------2-------0---0------------2-------|  
 D|----2-----2------------2-----2-----2------------2-------|  
 A|--3-------3--1-1h3p1-0-----3-------3--1-1h3p1-0---------|  
 E|--------------------------------------------------------|  



 e|--------------0-----0-----------------------------------|  
 B|------------------------------------------------2-------|  
 G|------------------------------------------------2-------|  
 D|-----------0--2--0--2--0----0---0---------------2-------|  
 A|--0--1--3-----------------3---3---3--1-1h3p1-0----------|  
 E|--------------------------------------------------------|  



 e|--------------0-----0-----------------------------------|  
 B|------------------------------------------------------2-|  
 G|------------------------------------------------------2-|  
 D|-----------0--2--0--2--0----0h2p0---0h2p0-------------2-|  
 A|--0--1--3-----------------3-------3-------3-1-1h3p1-0---|  
 E|--------------------------------------------------------|  
share this page

See Also: