E-Chords
Jose Gonzales

Heartbeats(Tabs)

Jose Gonzales

roll up this ad to continue

Please note tuning and . 
 
Tuning - D-A-D-F#-B-E 
 
 
José González - Heartbeats  
 
E ||--------------------------------|--------------------------------| 
B ||--------------------------------|---------------------------0----| 
F#||---------------3----------------|---------------3----------------| 
D ||------------0-----------0-------|------------0-----------0-------| 
A ||-----4h-5-5------4h-5-5----5-0--|-----4h-5-5------4h-5-5----5-0--| 
D ||--0-----------------------------|--0-----------------------------| 
 
      
------------------------------|-------------------------------|----|| 
----------0-------------------|-------------------------------|----|| 
-----------------------0------|----------0---------------0----|----|| 
-------4----4------------4----|-------0------0--------0-------|----|| 
--2--2---------0h-2-2---------|-----5------5---4h-5-5------0--|----|| 
---------------------------4--|--5----------------------------|----|| 
 
  
E ||--------------------------------|| 
B ||--------------------------------|| 
F#||---------------3----------------|| 
D ||----------0-----------0---------|| 
A ||-----4h-5---5----4h-5---5--5-0--|| 
D ||--0-----------------------------||  
 
The later part plus the ending strum 
 
------------------------------|------------------------------| 
------------------------------|------------------------------| 
----------0-------------0-----|----------0-------------0-----| 
-------0------0------0------0-|-------0------0------0------0-| 
-----7------7------7------7---|-----7------7------7------7---| 
--7-------------7-------------|--7-------------7-------------| 
 
 
------------------------------|------------------------------| 
------------------------------|------------------------------| 
----------0-------------0-----|----------0-------------0-----| 
-------0------0------0------0-|-------0------0------0------0-| 
-----5------5------5------5---|-----5------5------5------5---| 
--5-------------5-------------|--5-------------5-------------| 
  
------------------------------|------------------------------| 
------------------------------|------------------------------| 
----------0-------------0-----|----------0-------------0-----| 
-------0------0------7------0-|-------0------0------0------0-| 
-----7------7------7------7---|-----7------7------7------7---| 
--7-------------7-------------|--7-------------7-------------| 
       
------------------------------|-----------------------------|-------|| 
------------------------------|-----------------------------|-------|| 
----------0-------------0-----|----------0-------------0----|---3---|| 
-------0------0------0------0-|-------0------0------0-------|---0---|| 
-----5------5------5------5---|-----5------5------5------0--|---0---|| 
--5-------------5-------------|--5-------------5------------|---0---|| 
 
 
share this page

See Also: