E-Chords
Jon Fratelli

Rhythm Doesn't Make You A Dancer(Tabs)

Jon Fratelli

roll up this ad to continue

Key: Am
        Am                          C/B                  C 
e|----------------------------------------------------------0-----------------------| 
B|----------1------------------------------------------1-------1--------------------| 
G|------2------2----------------0------------------0--------------0-----------------| 
D|---2-----------------------0-----0------------2-----------------------------------| 
A|------------------------2-------------------3-------------------------------------| 
E|----------------------------------------------------------------------------------| 

            Am                      C/B                                    C 
e|------------------------------------------------------------------------------------| 
B|------------1-------------------------------------------1-----1b---1----------------| 
G|--------2------2-------------0---------------------0-------------------0------------| 
D|-----2--------------------0------0--------------2-----------------------------------| 
A|----------------------2---------------------3---------------------------------------| 
E|------------------------------------------------------------------------------------| 

        Am                          C/B                  C 
e|----------------------------------------------------------0-----------------------| 
B|----------1------------------------------------------1-------1--------------------| 
G|------2------2----------------0------------------0--------------0-----------------| 
D|---2-----------------------0-----0------------2-----------------------------------| 
A|------------------------2-------------------3-------------------------------------| 
E|----------------------------------------------------------------------------------| 

        Am                          C/B                  C                     C  C  C 
e|------------------------------------------------------------------------------------| 
B|----------1------------------------------------------1-------1---1--1---------------| 
G|------2------2----------------0------------------0----------0---0--0----------------| 
D|---2-----------------------0-----0------------2-------------2---2--2----------------| 
A|------------------------2-------------------3----------------3---3--3---------------| 
E|------------------------------------------------------------------------------------| 
 
share this page

See Also: