E-Chords
Johnossi

Send More Money(Tabs)

Johnossi

roll up this ad to continue

Key: Dm

INTRO 

   Dm                                      Bb A 

e--1-x-x-x-1-x-x-x-1-x-x-x-1-x-x-x-1-x-x-x----------| 
B--3-x-x-x-3-x-x-x-3-x-x-x-3-x-x-x-3-x-x-x----------| 
G--2-x-x-x-2-x-x-x-2-x-x-x-2-x-x-x-2-x-x-x----------| 
D--0-x-x-x-0-x-x-x-0-x-x-x-0-x-x-x-0-x-x-x----------| 
A------------------------------------------1--0-----| 
E---------------------------------------------------| 



VERSE 

   Dm                              F               C 

e--1-x-x-x-1-x-x-x-1-x-x-x-1----------------------------------------| 
B--3-x-x-x-3-x-x-x-3-x-x-x-3-x-x-x-1-x-x-x-1-x-x-x------------------| 
G--2-x-x-x-2-x-x-x-2-x-x-x-2-x-x-x-2-x-x-x-2-x-x-x-5-x-x-x-5-x-x-x--| 
D--0-x-x-x-0-x-x-x-0-x-x-x-0-x-x-x-3-x-x-x-3-x-x-x-5-x-x-x-5-x-x-x--| 
A----------------------------x-x-x-3-x-x-x-3-x-x-x-3-x-x-x-3-x-x-x--| 
E-------------------------------------------------------------------| 

   Dm                              Bb              A 

e--1-x-x-x-1-x-x-x-1-x-x-x-1----------------------------------------| 
B--3-x-x-x-3-x-x-x-3-x-x-x-3-x-x-x----------------------------------| 
G--2-x-x-x-2-x-x-x-2-x-x-x-2-x-x-x-3-x-x-x-3-x-x-x-2-x-x-x-2-x-x-x--| 
D--0-x-x-x-0-x-x-x-0-x-x-x-0-x-x-x-3-x-x-x-3-x-x-x-2-x-x-x-2-x-x-x--| 
A----------------------------x-x-x-1-x-x-x-1-x-x-x-0-x-x-x-0-x-x-x--| 
E-------------------------------------------------------------------| 



Chorus (0:32 first time) 

  Bb       C            F           Dm        Bb         c 
e------------------------------------------------------------------| 
B-----3-------1-------1-----1----1----3----3----3----3-----5----5--| 
G------3------------0-----2----0-------0h2-------3----3-----5----5-| 
D---3---3-------0h2-----3----2------0-----0--------3----------5----| 
A-1--------3----------------------------------1----------3---------| 
E------------------------------------------------------------------| 



ENDING BEFORE BRIDGE (At about 1:30) 

e----------0-------------| 
B-------2--2-------------| 
G-2--2--2----------------| 
D-2--2-------------------| 
A-0--0-------------------| 
E------------------------| 



BRIDGE (1:32) 

  Dm        Am         Bb        F             C 
e----1p0-------------------------------------------------| 
B-------3------0h1---------3-------1-1h3p1--------1------| 
G---2----2--------2---------3-----2--------2-------0-----| 
D-0-----------2----2-----3---3---3----------3---2--------| 
A-----------0----------1------1----------------3-----3-2-| 
E--------------------------------------------------------| 

  Bb         Dm 
e----0----------1p0-----1-1--------| 
B-----3---3--------2----2-2--------| 
G---------3---3-------3------------| 
D---3---3----0-------0-------------| 
A-1-------------------------0-0-3--| 
E----------------------------------| 
share this page

See Also: