E-Chords
John Leyton

Son This Is She(Tabs)

John Leyton

 

Intro: 
G|------------------------------------------------------------------------| 
D|------------------------------------------------------------------------| 
A|-8--8-8-8-5--5-5-5-------------------8--8-8-8-5--5-5-5------------------| 
E|-------------------6--6-6-6-8-8-8-8--------------------6--6-6-6-8-8-8-8-| 

verse 1:                                                 (Play This Bit x2) 
G|------------------------------------------------------------------------| 
D|------------------------------------------------------------------------| 
A|-8--8-8-8-5--5-5-5-------------------8--8-8-8-5--5-5-5------------------| 
E|-------------------6--6-6-6-8-8-8-8--------------------6--6-6-6-8-8-8-8-| 

verse 2: 
G|------------------------------------------------------------------------| 
D|------------------------------------------------------------------------| 
A|-8--8-8-8-5--5-5-5-------------------8--8-8-8-5--5-5-5------------------| 
E|-------------------6--6-6-6-8-8-8-8--------------------6--6-6-6-8-8-8-8-| 

G|-----------------------------------------------------------------------| 
D|-----------------------------------------------------------------------| 
A|-8--8-8-8-5--5-5-5-------------------8--8-8-8---------8--8-8-8-8-8-8-8-| 
E|-------------------6--6-6-6-8-8-8-8----------6--6-6-6------------------| 

Bridge: 
G|------------------------------------------------------------------------| 
D|------------------------------------5--5-5-5----------------------------| 
A|------------------8--8-8-8-5--5-5-5----------3--3-3-3-8--8-8-8-8--8-8-8-| 
E|-8--8-8-8-8--8-8-8------------------------------------------------------| 

G|-------------------------------------------------------5-5-3-3-2-2-----| 
D|-------------------7--7-7-7-7--7-7-7----------5--5-5-5-------------5-5-| 
A|-7--7-7-7-7--7-7-7-------------------5--5-5-5--------------------------| 
E|-----------------------------------------------------------------------| 

verse 3:                                                 (Play This Bit x2) 
G|------------------------------------------------------------------------| 
D|------------------------------------------------------------------------| 
A|-8--8-8-8-5--5-5-5-------------------8--8-8-8-5--5-5-5------------------| 
E|-------------------6--6-6-6-8-8-8-8--------------------6--6-6-6-8-8-8-8-| 

Interlude: 
G|------------------------------------------------------------------------| 
D|------------------------------------------------------------------------| 
A|-8--8-8-8-5--5-5-5-------------------8--8-8-8-5--5-5-5------------------| 
E|-------------------6--6-6-6-8-8-8-8--------------------6--6-6-6-8-8-8-8-| 

G|-----------------------------------------------------------------------| 
D|-----------------------------------------------------------------------| 
A|-8--8-8-8-5--5-5-5-------------------8--8-8-8---------8--8-8-8-8-8-8-8-| 
E|-------------------6--6-6-6-8-8-8-8----------6--6-6-6------------------| 

Bridge: 
G|------------------------------------------------------------------------| 
D|------------------------------------5--5-5-5----------------------------| 
A|------------------8--8-8-8-5--5-5-5----------3--3-3-3-8--8-8-8-8--8-8-8-| 
E|-8--8-8-8-8--8-8-8------------------------------------------------------| 


G|-------------------------------------------------------5-5-3-3-2-2-----| 
D|-------------------7--7-7-7-7--7-7-7----------5--5-5-5-------------5-5-| 
A|-7--7-7-7-7--7-7-7-------------------5--5-5-5--------------------------| 
E|-----------------------------------------------------------------------| 

verse 4:                                                 (Play This Bit x2) 
G|------------------------------------------------------------------------| 
D|------------------------------------------------------------------------| 
A|-8--8-8-8-5--5-5-5-------------------8--8-8-8-5--5-5-5------------------| 
E|-------------------6--6-6-6-8-8-8-8--------------------6--6-6-6-8-8-8-8-| 

Outro:  (Repeat Outro To Fade/End) 
G|------------------------------------------------------------------------| 
D|------------------------------------------------------------------------| 
A|-8--8-8-8-5--5-5-5-------------------8--8-8-8-5--5-5-5------------------| 
E|-------------------6--6-6-6-8-8-8-8--------------------6--6-6-6-8-8-8-8-| 


  

roll up this ad to continue

share this page

See Also: