E-Chords
John Butler Trio

Media(Tabs)

John Butler Trio

                       Music & Lyrics by John Butler 
              From the album 'three' By The John Butler Trio 
 
Tabbed by - Jeremy Doolan  email: [email protected] 
 
this song requires a capo on the 5th fret and tune to c-g-c-g-c-e.  
key: h= hammer on 
        \= slide down  
        x=palm mute all strings on no particular fret. 
fret numbers in this tab are  
intro: 
e:----------------------------------------------------------------x-x-x-\\---------- 
c:----------------------------------------------------------------x-x-x-\\---------- 
g:------------------0---------------------0-----------------------x-x-x-\\---------- 
c:---------------5-----0---2----4----5-----4h5----------7-7-7h9---x-x-x-\\--4-4-4h5- 
g:------------------------------------------------------5-5-5-----x-x-x-\\--2-2-2--- 
c:------------------------------------------------------5-5-5-----x-x-x-\\--2-2-2--- 
 
intro part 2: 
e:----------------------------- 
c:----------------------------- 
g:------9-x-x-x----------5-\4--    repeat as necessary 
c:7-7-7-7-x-x-x--4-4-4-4------- 
g:5-5-5-5-x-x-x--2-2-2-2------- 
c:5-5-5-5-x-x-x--2-2-2-2------- 
 
verse: 
e:------------------------------------------------------------------- 
c:------------------------------------------------------------------- 
g:------------10----------------7-------------10----------------10--- 
c:---------7------------------4------------7-----------------7------- 
g:------5------------------4------------5----------------5----------- 
c:---5-----------------2-------------5---------------5--------------- then  
strum this pattern and palm mute some parts but no specific frets are needed. 
 
chorus: 
e:-0--0-0--0-0--0--0--0-0--0--0--0-0--0--0-0--0--0--0-0--0--0-0--0----------x 
c:-0--0-0--0-0--0--0--0-0--0--0--0-0--0--0-0--0--0--0-0--0--0-0--0----------x 
g:-0--0-0--0-0--0--0--0-0--0--0--0-0--0--0-0--0--0--0-0--0--0-0--0-9--9-9-9-x 
c:-0--0-0--0-0--0--0--0-0--0--0--0-0--0--0-0--0--0--0-0--0--0-0--0-7--7-7-7-x 
g:-0--0-0--0-0--0--0--0-0--0--0--0-0--0--0-0--0--0--0-0--0--0-0--0-5--5-5-5-x 
c:-0--0-0--0-0--0--0--0-0--0--0--0-0--0--0-0--0--0--0-0--0--0-0--0-5--5-5-5-x 
    1  e  +  a  2  e  +  a  3  e  +  a  4  e  +  a  5  e  +  a  6  e  +  a 7   
 
e + a 8 
 
e:-x--x--x--x--x--x--x 
c:-x--x--x--x--x--x--x 
g:-x--x--x--x--x--x--x 
c:-x--x--x--x--x--x--x 
g:-x--x--x--x--x--x--x 
c:-x--x--x--x--x--x--x 
    e  +  a  9  e  +  a 
 
Bridge: starts when john sings 'if truth can't be found' 
 
e:---4---2--0--2 
c:---4---2--0--2 
g:---4---2--0--2    give each note  a full 4 beats of value 
c:---4---2--0--2 
g:---4---2--0--2 
c:---4---2--0--2 
 
during the faster bit in the bridge you could also ad this bit 
e:----------------------------------------------------------------------------- 
c:-7--------7------7-------7--------------------------------------------------- 
g:-----7------7-------7-------7----7---------7----------7----------7----------- 
c:---------7-----7-------7-------7-----9----------9----------9---------9-------  
g:-------------------------------------------7----------7-----------7--------7- 
c:----------------------------------------------------------------------------- 
 
coda: 
e:--------------------------------------------------------------------------- 
c:--------------------------------------------------------------------------- 
g:-10-10-10-10-10-10-10-10--7--7--7--7--7--7--7--7-10-10-10-10-10-10-10-10--- 
c:--7--7--7--7--7--7--7--7--4--4--4--4--4--4--4--4--7--7--7--7--7--7--7--7--- 
g:--5--5--5--5--5--5--5--5--2--2--2--2--2--2--2--2--5--5--5--5--5--5--5--5--- 
c:--5--5--5--5--5--5--5--5--2--2--2--2--2--2--2--2--5--5--5--5--5--5--5--5--- 
 
e:--------------------------------------------------------------------------- 
c:--------------------------------------------------------------------------- 
g:--7--7--7--7--7--7--7--7--------------------------------------------------- 
c:--4--4--4--4--4--4--4--4--------------------------------------------------- 
g:--2--2--2--2--2--2--2--2--------------------------------------------------- 
c:--2--2--2--2--2--2--2--2  repeat as many times as needed.------------------ 
 
by jeremy  
any queries  email: [email protected] 
 
Send them to [email protected] 
http://www.johnbutlertrio.com 
 
 

roll up this ad to continue

share this page

See Also: