E-Chords
John Butler Trio

Livin In The City(Tabs)

John Butler Trio

                       INTRO 
  {Drums} 
e|-------|----------------|-------------------------------------------:|| 
B|-------|-----6----------|-------------------------------------------:|| 
G|-------|-5/7---7\5-3----|---------------3--3------5--5--------------:|| 
D|-------|-------------5--|------5--5---------------------------------:|| 
A|-------|----------------|------------1-1--1---3-3--3---3/4-3--1-3-1-:|| 
E|-------|----------------|--3-3--3-----------------------------------:|| 
                        VERSE              x2    
e------------------------------------------|--------------------------:|| 
B------------------------------------------|--------------------------:|| 
G------------3--3------5--5----------------|--------------3--3--------:|| 
D-----5--5---------------------------------|-----5--5-----------------:|| 
A----------1---1----3-3---3---3/4-3--1-3-1-|----------1-1---1---3-----:|| 
E-(3)-3--3---------------------------------|-3-3---3------------------:|| 
(2nd time optional)     Chorus                                  
e|-------------------------------------------:||           
B|-------------------------------------------:|| 
G|-------------------------------------------:||   1 ->  VERSE  
D|---5-5-x--8-8-x--10-10-x-------------------:||   2 ->  Chorus         
A|---5-5-x--8-8-x--10-10-x-------------------:|| 
E|---3-3-x--6-6-x--8--8--x-8/9-8-6-8-6-------:|| 
                        BREAK 
e|--------------------------|------------------------|-------------------------|----------------------------| 
B|--------------------------|------------------------|-------------------------|-----------------6----------| 
G|-----------3~-------------|------------------------|-----------3-------------|-----------3-5/7---7\5-3----| 
D|------3-h5----5-3-5-3-----|-----3-h5~5~5~5~5-3-----|------3-h5---5-3-5-3-----|------3-h5---------------5--| 
A|----5-----------------5-3-|---5----------------5-1-|----5----------------5-3-|----5-----------------------| 
E|--3-----------------------|-3----------------------|--3----------------------|--3-------------------------| 

                                                                                                         x2 
e|--------------------------|------------------------|-------------------------|--------------------------:|| 
B|--------------------------|------------------------|-------------------------|--------------------------:|| 
G|-----------3~-------------|------------------------|-----------3-------------|--------------------------:|| 
D|------3-h5----5-3-5-3-----|-----3-h5~5~5~5~5-3-----|------3-h5---5-3-5-3-----|-----3-h5~5~5~5~5-3-------:|| 
A|----5-----------------5-3-|---5----------------5-1-|----5----------------5-3-|---5----------------5-1---:|| 
E|--3-----------------------|--3---------------------|--3----------------------|--3-----------------------:|| 
                        SOLO 
e|---------------------------------------------------------------------------| 
B|---------------------------------------------------------------------------| 
G|-------------I AM UNABLE TO TAB THIS PART----------------------------------|   -> Chorus    
D|--------------BUT THE REST OF THE SONG IS CORRECT--------------------------| 
A|---------------------------------------------------------------------------| 
E|---------------------------------------------------------------------------| 

THIS IS MY FIRST TAB. 
THIS SONG WAS SO GOOD AND IT IS RELATIVELY EASY SO I DECIDED TO TAB IT. 
ENJOY 

************************************ 

| /   slide up 
| \   slide down 
| h   hammer-on 
| p   pull-off 
| ~   vibrato 
| +   harmonic 
| x   Mute note 
| b   Bend 
| pb  Pre-bend 
| br  Bend release 
| pbr Pre-bend release 
| brb Bend release bend 

************************************ 

roll up this ad to continue

share this page

See Also: