E-Chords
Johann Pachelbel

Canon in D(Tabs)

Johann Pachelbel

roll up this ad to continue

Key: D
Dropped D Tuning 

e:-------2-------------------------------- 
B:-----3----------2--------3--------2----- 
G:---2----------2--------4--------2------- 
D:-0----------2--------4--------4--------- 
A:----------0--------2-------------------- 
D:----------------------------4----------- 

e:---------------------------------------- 
B:-------0--------3--------3--------2----- 
G:-----0--------2--------4--------2------- 
D:---0--------4--------5--------2--------- 
A:----------------------------0----------- 
D:-5--------0--------5-------------------- 

e:-2--------0----------------------------- 
B:-----3-------------3--------2----------- 
G:---2---2------2--------4--------2------- 
D:-0----------2---2----4---4----4---4----- 
A:----------0--------2-------------------- 
D:----------------------------4----------- 

e:----------------------------0----------- 
B:-0--------3--------3-------------------- 
G:-----0--------2--------4--------2------- 
D:---0---0----4---4----5---5----2---2----- 
A:----------------------------0----------- 
D:-5--------0--------5-------------------- 

e:-2-----2--0----------------------------- 
B:-----3----------2--3-----3--2-----2----- 
G:---2----------2--------4--------2------- 
D:-0----------2--------4--------4--------- 
A:----------0--------2-------------------- 
D:----------------------------4----------- 

e:----------------------------0----------- 
B:-0-----0--3-----3--3-----3--------2----- 
G:-----0--------2--------4--------2------- 
D:---0--------4--------5--------2--------- 
A:----------------------------0----------- 
D:-5--------0--------5-------------------- 

share this page

See Also: