E-Chords
Joe Cocker

With A Little Help(Tabs)

Joe Cocker

Key: G
 Intro w/ distortion : (0:16)  
  
    G		 D	      A	   
e|--13b15vvvvvv--12b14vvvvvv--10b12vvvvvv--|--------------------------|  
b|-----------------------------------------|----8vvvvvvvv---7vvvvvvv--|  
g|o---------------------------------------o|---10bvvvvvvv---9bvvvvvv--|  
d|o---------------------------------------o|--------------------------|  
a|-----------------------------------------|--------------------------|  
e|-----------------------------------------|--------------------------|  
	       
e-----------------------------------3-------------------------------------|  
b---5vvvvvvv------------------------3-----3-----2-------------------------|  
g---7bvvvvvv---7b9r7p5---7---5vv----0-----2-----2-------------------------|  
d----------------------7---7--------0-----0-----2-------------------------|  
a-----------------------------------x-----0-----0----0--2---5h7p5--5---5--|  
e-----------------------------------3--------------------------------7----|  
  
e----------2------------|  
b---3------3-----2------|  
g---0------2-----2------|  
d---0------0-----2------|  
a---2------0-----0------|  
e---3-------------------|  
  
Verses just played by bass.  
  
Choruses are   G	D	A  
  
			Bridge : (2:11,3:43)  
e----------------------|-----------------------------------------|  
b----------------------|-----------------------------------------|  
g----------------------|o-------------3--------------------------|  
d----------------------|o---------2---4--------------------------|  
a--2b3r2b3r2b3r2b3--0--|--0---4-------4--------------------------|  
e----------------------|--------------2--------------------------|  
				         Do you need anybody?  
  
		 ______________1______________ ________2_________  
e---------------------------------------------|------------------|  
b---------------------------------------------|------------------|  
g--------------------------------------------o|------------9-----|  
d----4---2---0----7\-------------------------o|------------9-----|  
a-----------------7\--------------------------|------------7-----|  
e-----------------5\--------------------------|------------------|  
		      I need someone to love.   All I need...  
  
e------------------------------------------7--------------------|  
b--------------------------------10---9----9--------------------|  
g--9-----------------------------9----9----9---9----------------|  
d--9-----------------------------9----9----9---9----------------|  
a--7--/--/--/--/--/------/--/----7----7----7---7--/--/---14\----|  
e--------------------------------------------------------12\----|  

roll up this ad to continue

share this page

See Also: