E-Chords
Joe Cocker

Summer In The City (solo)(Tabs)

Joe Cocker

Key: D
 

e|--10-----------------------------------------------------------| 
B|--13b15-13-11-------11-----------------------------------------| 
G|---------------10-12--14b15-12-10-12---------------------------| 
D|---------------------------------------------------------------| 
A|---------------------------------------------------------------| 
E|---------------------------------------------------------------| 

e|------------------13p10-----13p10----10-18b20~~~---------------| 
B|-------11h13b15~~~~~~~r13~~~~~~-13-----------------------------| 
G|-10/12----------------------~~~--------------------------------| 
D|---------------------------------------------------------------| 
A|---------------------------------------------------------------| 
E|---------------------------------------------------------------| 

e|-18b20r18------------------------------------------------------| 
B|----------18--18--18~~~~~~---15----15--------------------------| 
G|------------19----19~~~~~~---17b19-17b19r17--------------------| 
D|--------------------------------------------17-17--------------| 
A|--------------------------------------------------17-17--15-17-| 
E|---------------------------------------------------------------| 

e|--------------------------------------------------17----20----17------| 
B|----------------------------15--15-18-15-18-20-18-20b22-20b22-20b22---| 
G|----------------14-17-14-17---17--------------------------------------| 
D|---15--15-17-15-------------------------------------------------------| 
A|-17--17---------------------------------------------------------------| 
E|----------------------------------------------------------------------| 

e|------------------------------------------------------------------------| 
B|-20b21-18-20-18~18-20b21-18-20-18-18~-18--------------------------------| 
G|----------------------------------------19-17---------------------------| 
D|----------------------------------------------19-18-17-15-17-15---------| 
A|---------------------------------------------------------------17-15-17-| 
E|------------------------------------------------------------------------| 

e|------------------------------------------------------| 
B|------------------------------------------------------| 
G|------------------------------------------------------| 
D|-/7~~~---/3~~~---/4~~~--------------------------------| 
A|------------------------------------------------------| 
E|------------------------------------------------------| 

roll up this ad to continue

share this page

See Also: