E-Chords
Jhon Williams

Harry Potter theme(Tabs)

Jhon Williams

roll up this ad to continue

Primera parte: 
 
 |-----0-3-2-0-7-5-2--0-3-2---1---| 
 |---0----------------------3---0-| 
 |--------------------------------| 
 |--------------------------------| 
 |--------------------------------| 
 |--------------------------------| 
 
Segunda parte: 
 
 |-----0-3-2-0-7-10-9-8--5-8-7-6---3-0-| 
 |---0---------------------------0-----| 
 |-------------------------------------| 
 |-------------------------------------| 
 |-------------------------------------| 
 |-------------------------------------| 
 
Final: 
 
 |--3-7-3-3-10-9-7-8--3-0-| 
 |-------------------0----| 
 
share this page

See Also: