E-Chords
Jett Rebel

Tonight(Tabs)

Jett Rebel

roll up this ad to continue

Key: C
Intro 

In het intro gaan er 2 gitaren door elkaar heen. 

Gitaar 1: 
E|------------------------------------------------------| 
B|------------------------------------------------------| 
G|------------------------------------------------------| 
D|------------------------------------------------------| 
A|--7--7------7---------7--7------7---------------------| 
E|--------10--- 9--7-----10---9-7-------0--0--3--5??-----| 

Gitaar 2: 
e|---------------------------------------------------------------------------| 
B|---------------------------------------------------------------------------| 
G|---------------------------------------------------------------------------| 
D|---------------------------------------------------------------------------| 
A|-----5--4-2-----5---4-2----------------------------------------------------| 
E|-0-0--0-----0-0---0-----0-0-3-5--------------------------------------------| 


Je speelt dezelfde melodie, alleen speelt gitaar 2 hem lager.. Dit zorgt voor een betere balans. 

Gitaar 1 partij zou je nog kunnen uitbreiden met deze: 
E|------------------------------------------------------| 
B|------------------------------------------------------| 
G|------------------------------------------------------| 
D|--------12-----11--9--------12-----11--9--------------| 
A|--7--7------7---------7--7------7---------------------| 
E|------------------------------------------0--0--3--5??-| 

Die is lastiger, maar op de cd versie komt deze ook nog wel voorbij. 
Live spelen ze alleen de bovenste 2. 



Verse: 
Gitaar 2 blijft het loopje uit het intro spelen. 
Gitaar 1 speelt deze: 
E|------------------------------------------------| 
B|------------------------------------------------| 
G|------------------------------------------------| 
D|--5--7------------------------------------------| 
A|--------5--5--5--5----5-----5-5--4--------------| 
E|------------------------------------------7--5--| 

Jelte varieert nogal met wat ie precies doet, maar het is hier op gebaseerd. 
Hij strumt het ook en mute dan de rest van de snaren. 

Je speelt beide loopjes 3x dan komt het tussentro. 

Tussentro: 
C        D           C7     D7                  (loopje verder spelen) 
I don't mind, gonna stay in bed with you tonight 

De eerste C speel je met barre op de 3e fret 
De eerste D speel je met barre op de 5e fret 
De C7 speel je met barre op de 8e fret 
De D7 speel je met barre op de 10e fret 

Na het tussentro speel je de loopjes nog 1x en dan komt Chorus. 

Chorus: 
      D  D            G      A      C slide to D 
It's no fun when the girl's aren't dancing (4x) 
      
(Baby have a drink and let's have a party tonight) 


Deze akkoorden speel je gewoon barre. 

Hierna herhaal je alles, dan komt er een solo(die lastig is om uit te zoeken) 
en dan herhalen ze nog wat en zijn ze klaar :) 
share this page

See Also: