E-Chords
Jesus And Mary Chain

Just Like Honey(Tabs)

Jesus And Mary Chain

Tabbed by: Rich Milwain ([email protected])

Tuning: Standard (E,A,D,G,B,E)

It's a bit hard to make out exactly what's being played over all the fuzz but the guitar goes
something like this. Make sure that you let all the chords ring. To get a good sound use some
fuzz effect or a lot of gain. It sounds better with the tone set high.

(0:09)

|-4----------4----9--------9----4-----------4----9-----------9----4------------------|
|-4--------4------9----------9--4-------------4--9-------------9--4------------------|
|-5------------5--10------------5---------5------10-------10------5------------------|
|-6---------------11------------6----------------11---------------6------------------|
|------------------------------------------------------------------------------------|
|------------------------------------------------------------------------------------|

(0:28)

|---4----9------------9----4----------4----9---------9---9--4--------------|
|--------9--------------9--4------------4--9-----------9----4--------------|
|-----5--10--------10------5--------5------10---------------5--------------|
|--------11----------------6---------------11---------------6--------------|
|--------------------------------------------------------------------------|
|--------------------------------------------------------------------------|

(0:42)

|-----4----9---------9------9---9----------|
|-------4--9-----------9------9------------|
|---5------10------------10----------------|
|----------11------------------------------|
|------------------------------------------|
|------------------------------------------|

(0:50)

'Walking back to you...'

                  |----11------9-------------9------9---------4----------|
          |--------11--9---------------9------9----9--4------------------|
          |-12---------10---------10-----10-----10----5------------------|
          |------------11-----------------------------6------------------|
          |--------------------------------------------------------------|
          |--------------------------------------------------------------|

(0:57)

Play and pick between these two chords in the same order as the verses:

|-4---------9---|
|-4---------9---|
|-5---------10--|
|-6---------11--|
|---------------|
|---------------|

(1:20)

Play and pick between these three chords in this order:

|-11---------9-----------4--------|
|-11---------9-----------4--------|
|-12---------10----------5--------|
|-13---------11----------6--------|
|---------------------------------|
|---------------------------------|

(1:27):

This little solo comes in:

|---------------------------------------------------------------------------|
|---------------------------------------------------------------------------|
|---------------------------------------------------------------------------|
|--------------------------3-3-1-1-1-1-3-3-1-1-1-1---1-1-1-1--1-1-1-1-1-1-1-|
|-3-3-1-1-1-1-3-3-1-1-1-1---------------------------------------------------|
|---------------------------------------------------------------------------|

|---------------------------|
|---------------------------|
|---------------------------|
|-3-3-3-3--3-3-3-3-3-3-3----|
|---------------------------|
|---------------------------|


When the solo is over play and pick between these two chords:

|-4---------9---|
|-4---------9---|
|-5---------10--|
|-6---------11--|
|---------------|
|---------------|

..and that's it.

roll up this ad to continue

share this page

See Also: