E-Chords
Jesus And Mary Chain

Come On(Tabs)

Jesus And Mary Chain

Key: F
Tab By: Carlos Bustos
Email:  [email protected]
Tuning: Standard
Comment:This is about as easy as a song can get.  Song consists of three
        chords (F, Bb, and C) in various positions.  Who else could rock
        so hard with only three chords? no one.  Crank up the base, turn
        down the treble and mid, and turn the gain up.  The key to the
        Mary Chain's sound in a light attack on the strings which gives
        it a lower sound.  Comments, good or bad, are welcome.


v = Strum Down
^ = Strum Up
/ = Slide Up
\ = Slide Down
b = Bend


Riff 1:
||-------------8---------------6---|
||-------------8---------------6---|
||10--10--10--10---7---7---7---7---|
||10--10--10--10---8---8---8---8---|
||-8---8---8---8---8---8---8---8---|
||-8---8---8---8---6---6---6---6---|
   v   v   v   ^   v   v   v   ^


Riff 2:
||---------------------------------------------------------------------|
||---------(slow slide)------------------------------------------------|
||10--10--10---\---3---3---3---3---3---3---3---3--/---5---5---5---5----|
||10--10--10---\---3---3---3---3---3---3---3---3--/---5---5---5---5----|
||-8---8---8---\---1---1---1---1---1---1---1---1--/---3---3---3---3----|
||-8---8---8---\---1---1---1---1---1---1---1---1--/---3---3---3---3----|
   v   v   v       v   v   v   v   v   v   v   v      v   v   v   v


Riff 1:  Repeated
We've got nothing but that's alright
Nothing could be something if the feeling's right
Holding onto something doesn't make it mine
Got to get to heaven but we don't have time

So come on
Riff 2
So come on
Riff 2
So come on
Riff 2
Yah baby, come on
Riff 2

Riff 1:  Repeated
Bright light city set my soul on fire
Couldn't get me worried, couldn't get me higher
Scream for me baby 'cause I'm going down
Got to get to heaven when the sun goes down

So come on
Riff 2
So come on
Riff 2
So come on
Riff 2
Yah baby, come on
Riff 2
Yah baby, come on
solo:  Keep playing Riff 2 under the solo.
         For the acual solo, repeat below over and over.
||----------------------------------------------------------------------------|
||-----------------------------(Keep picking as you slowly bend)--------------|
||-3---3-3--5b(5.5)n5--3----5--5b(5.5)--5b(6)--5b(6.5)--5b(6)--5b(5.5)--5b(5)-|
||----------------------------------------------------------------------------|
||----------------------------------------------------------------------------|
||----------------------------------------------------------------------------|

End.

roll up this ad to continue

share this page

See Also: