E-Chords
Jessica Andrews

I've Been Waiting For You(Tabs)

Jessica Andrews

Key: G5
Hello again eveyone. This is only my third tab. I picked this on off the CD 
Heart Shaped World. Im not sure if its 100% acurate, but I beleive that I  
got the most of the chords correct. This is the way I play it. It was my  
time sitting down and learning a song by ear. Please read all the little  
notes under the tabs and such. Forgive me if I make any mistakes. 
 
Intro: 
Guitar A: light distortion 
    G5       C5       D5       G5 
E|--------------------------------| 
B|--------------------------------| 
G|--------%--5--5--%--7--7--7-----|X2 
D|--5--5--%--5--5--%--7--7--7--5--| 
A|--5--5-----3--3-----5--5--5--5--| 
D|--3--3-----------------------3--| 
 
% = rest 
 
Guitar B: light distortion 
 
    G5 G5 G  C5 C5 C  D5 D5 D5 D 
E|--------3--------3-----------3--| 
B|--------3--------5-----------3--| 
G|--------4--5--5--5--7--7--7--4--| 
D|--5--5-----5--5-----7--7--7--5--|X2 
A|--5--5-----3--3-----5--5--5--5--| 
D|--3--3-----------------------3--| 
 
Guitar C: same as guitar B only on an acoustic 
 
You can play all three together if you have the three poeple to do so, or play either one. 
 
 
 
Verse:  
On an acoustic with open chords. 
     G        C        D        C 
E|---------3--------0--2--2--2--2--3---| 
B|---------3--------1--3--3--3--3--3---| 
G|*--------0--------0--2--2--2--2--0--*|X4 
D|*--------0--2--2-----0--0--0--0--0--*| 
A|---2--2-----3--3-----------------2---| 
D|---3--3-----0--0-----------------3---| 
               
Listen to the CD for the timing. You can also come up with a better strum patern if yo want. 
 
 
Chorus:  
(light distortion) 
    G5       C5       D5       G5 
E|--------------------------------| 
B|--------------------------------| 
G|--------%--5--5--%--7--7--7-----|X3 
D|--5--5--%--5--5--%--7--7--7--5--| 
A|--5--5-----3--3-----5--5--5--5--| 
D|--3--3-----------------------3--| 
         'I didnt go.....' 
% = rest 
 then play for the 'But I've been waiting for you' part 
 
    D5    C5       G5 
E|--------------------| 
B|--------------------| 
G|--7--7--5--5--5-----| 
D|--7--7--5--5--5--5--| 
A|--5--5--3--3--3--5--| 
D|-----------------3--| 
 
I like to hold the last chord for a beat then bend it alittle.  
Listen to the CD for the timing though. Im not very good at tabing out chord patern. 
 
 
Break: 
Guitar A: light distortion 
    G5       C5       D5       G5 
E|--------------------------------| 
B|--------------------------------| 
G|--------%--5--5--%--7--7--7-----| 
D|--5--5--%--5--5--%--7--7--7--5--| 
A|--5--5-----3--3-----5--5--5--5--| 
D|--3--3-----------------------3--| 
 
% = rest 
 
Guitar B: light distortion 
 
    G5 G5 G  C5 C5 C  D5 D5 D5 D 
E|--------3--------3-----------3--| 
B|--------3--------5-----------3--| 
G|--------4--5--5--5--7--7--7--4--| 
D|--5--5-----5--5-----7--7--7--5--| 
A|--5--5-----3--3-----5--5--5--5--| 
D|--3--3-----------------------3--| 
 
Guitar C: same as guitar B only on an acoustic 
 
 
Repeat Verse and Chorus 
 
 
Solo: 
Repeat the into X3. Sorry, I'll have the lead work as soon as i get the time. 
 
 
Bridge: 
This was the hard part. Im not 100% on this. Try it and see. Please make any corrections needed. 
 
    G5 G5 G  C5 C5 C  D5 D5 D5 D 
E|--------------------------| 
B|--------------------------| 
G|--------------5--5--7--7--| 
D|--3--3--5--5--5--5--7--7--|X2 
A|--3--3--3--3--3--3--5--5--| 
D|--1--1--3--3--------------| 
Listen to the CD for strum patern. These are just the chords 
 
 
Repeat chorus. 
 
The last line: 'I've been waiting for you.' 
    D5    C5       G5 
E|--------------------| 
B|--------------------| 
G|--7--7--5--5--5-----| 
D|--7--7--5--5--5--5--| 
A|--5--5--3--3--3--5--| 
D|-----------------3--| 
 
 
Outro: 
Play intro x2. Hold the last G5 
 
 
Thats it. Please add any corrections. Also listen to the CD for timing. Also listen to 
the rest of the CD and Jessica's latest, 'Who I Am', if you havent yet. They are both very  
awesome CD's. I'll be adding more Jessica Andrews tabs when I get around to it. Thanks. 
Any questions or comments: [email protected] 
~~~~~~~~~~~~~~~~~~~~~~~~~~~~~~~~~~~~~~~~~~~~~~~~~~~~~~~~~~~~~~~ 
Lyrics: 
 
Verse: 
They say Montana has a real big sky  
And the Grand Canyon is deep and wide  
There's a whole lot of livin' that I wanna do  
But I'd rather see the world from your point of view  
 
Chorus:  
I didn't go to Memphis to see the king  
Or ride the Mississippi down to New Orleans  
I could've found someone to give my love to  
But I've been waiting for you  
 
Verse: 
I've got a little money stashed away  
Just sittin' on ready for a rainy day  
Anticipating escaping with you  
Doin' all the crazy things that I didn't do  
 
(repeat chorus)  
 
Bridge: 
Oh, no I didn't wanna settle for  
Just settlin' down  
I was lookin' for the right one, baby  
And that's what I've found  
 
(repeat chorus)  
 
I've been waiting for you  
 

roll up this ad to continue

share this page

See Also: