E-Chords
Jenny Lane

Firework(Tabs)

Jenny Lane

firework  



jenny lane 




para la princesa mariposa 
                                                  
e:----------------------------------------------------0-| 
B:-------0---------------0---------------0----------3---| 
G:-----2----2----------2---2-----------2---2------2-----| 
D:---2--------2------2-------2-------0-------0--0-------| 
A:-0------------0--------------0------------------------| 
E:-----------------3--------------2---------------------| 


  do you ever feel like a plastic bag... 
e:----------------------------------------------------0-| 
B:-------0---------------0---------------0----------3---| 
G:-----2----2----------2---2-----------2---2------2-----| 
D:---2--------2------2-------2-------0-------0--0-------| 
A:-0------------0--------------0------------------------| 
E:-----------------3--------------2---------------------| 

  do you ever feel already very deep... 
e:----------------------------------------------------0-----| 
B:-------0---------------2---------------0----------3---3---| 
G:-----2----2----------2---2-----------2---2------2-------2-| 
D:---2--------2------0-------0-------0-------0--0-----------| 
A:-0------------0--2----------------------------------------| 
E:--------------------------------2-------------------------| 

  do you know that theres still a chance for you... 
e:----------------------------------------------------0-| 
B:-------0---------------0---------------0----------3---| 
G:-----2----2----------2---2-----------2---2------2-----| 
D:---2--------2------2-------2-------0-------0--0-------| 
A:-0------------0--------------0------------------------| 
E:-----------------3--------------2---------------------| 

   ignite     the light  and let it  shine 
e:----0--------------2----------------2-----| 
B:----2--------------3--------2-------3-----| 
G:----2--------------4--------2-------2-----| 
D:----2--------------4--------2-------0-----| 
A:----0--------------2--------4-------0-----| 
E:------------------------------------------| 

  just own the night 
e:----0--------------2--------------------------------0-------| 
B:----2--------------3--------------2--------2------3---3-----| 
G:----2--------------4------------2--------2------2-------2---| 
D:----2--------------4-------------------2------0-----------0-| 
A:----0--------------2----------4-----------------------------| 
E:----------------------------2--------0----------------------| 

   you are a firework... 
e:------------------------------------------------0-------| 
B:-------2--------------3------------2----------3---3-----| 
G:-----2---2----------4---4--------2---2------2-------2---| 
D:---2-------2------4-------4----2-------2--0-----------0-| 
A:-0-----------0--2------------4--------------------------| 
E:--------------------------------------------------------| 

  
e:----------------------------------------------------0-------| 
B:-------2--------------3------------2-------2------3---3-----| 
G:-----2---2----------4---4--------2-------2------2-------2---| 
D:---2-------2------4-------4------------2------0-----------0-| 
A:-0-----------0--2--------------4----------------------------| 
E:-----------------------------2-------0----------------------| 

   boom boom boom... 
e:------------------------0-----------------5-----| 
B:-------2-------2------3---3-----------------5---| 
G:-----2-------2------2-------2-----------6-----6-| 
D:-----------2------0-----------0-------7---------| 
A:---4--------------------------------7-----------| 
E:-2-------0------------------------5-------------| 

e:-----------------------------------------0-----| 
B:--------2--0-------------3-------------3---3---| 
G:-----2--2--2----2------4---4----2----2-------2-| 
D:---2----2--2--2------4-------------0-----------| 
A:-------------------2----------4----------------| 
E:-0---------------------------------------------| 

e:---------------0-| 
B:-------2-------0-| 
G:-----2---2-----1-| 
D:---2-------2---2-| 
A:-0-------------2-| 
E:---------------0-| 

  baby you're a firework... 
e:----0-------------------------------0-----| 
B:----2--------------3--------2-------3-----| 
G:----2--------------4--------2-------2-----| 
D:----2--------------4--------2-------0-----| 
A:----0--------------2--------4-------------| 
E:------------------------------------------| 

   
e:----0-----------------------------------------------0-------| 
B:----2--------------3--------------2--------2------3---3-----| 
G:----2--------------4------------2--------2------2-------2---| 
D:----2--------------4-------------------2------0-----------0-| 
A:----0--------------2----------4-----------------------------| 
E:----------------------------2--------0----------------------| 


  baby you're a fire work... 
e:----0-0-0-0-0--2-2-2-2-2-----------0-0-0-0-0-| 
B:----2-2-2-2-2--3-3-3-3-3--2-2-2-2--3-3-3-3-3-| 
G:----2-2-2-2-2--4-4-4-4-4--2-2-2-2--2-2-2-2-2-| 
D:----2-2-2-2-2--4-4-4-4-4--2-2-2-2--0-0-0-0-0-| 
A:----0-0-0-0-0--2-2-2-2-2--4-4-4-4------------| 
E:---------------------------------------------| 


e:-----------------------------------------0-0-0-------| 
B:-------2--------2--------2-2-2-2------3--3-3-3-3-3-3-| 
G:-----2-2------2-2------2-2-2-2-2----2----2---2-2-2-2-| 
D:-2-2---2----2---2----2---2-2-2-2--0----------0-0-0-0-| 
A:-0---------------------------------------------------| 
E:----------4-------2----------------------------------| 

e:----------0-0-0-0--| 
B:-2-2-2-2--0-0-0-0--| 
G:-2-2-2-2--1-1-1-1--| 
D:-2-2-2-2--2-2-2-2--| 
A:-0-0-0-0--2-2-2-2--| 
E:----------0-0-0-0--| 

  boom boom boom... 
e:----0-0-0-0-0--2-2-2-2-2-----------0-0-0-0-0-| 
B:----2-2-2-2-2--3-3-3-3-3--2-2-2-2--3-3-3-3-3-| 
G:----2-2-2-2-2--4-4-4-4-4--2-2-2-2--2-2-2-2-2-| 
D:----2-2-2-2-2--4-4-4-4-4--2-2-2-2--0-0-0-0-0-| 
A:----0-0-0-0-0--2-2-2-2-2--4-4-4-4------------| 
E:---------------------------------------------| 

e:-----------------------------------------0-0-0-------| 
B:-------2--------2--------2-2-2-2------3--3-3-3-3-3-3-| 
G:-----2-2------2-2------2-2-2-2-2----2----2---2-2-2-2-| 
D:-2-2---2----2---2----2---2-2-2-2--0----------0-0-0-0-| 
A:-0---------------------------------------------------| 
E:----------4-------2----------------------------------| 

e:----------0-0-0-0--| 
B:-2-2-2-2--0-0-0-0--| 
G:-2-2-2-2--1-1-1-1--| 
D:-2-2-2-2--2-2-2-2--| 
A:-0-0-0-0--2-2-2-2--| 
E:----------0-0-0-0--| 


e:----0-0-0-0-0--2-2-2-2-2-----------0-0-0-0-0-| 
B:----2-2-2-2-2--3-3-3-3-3--2-2-2-2--3-3-3-3-3-| 
G:----2-2-2-2-2--4-4-4-4-4--2-2-2-2--2-2-2-2-2-| 
D:----2-2-2-2-2--4-4-4-4-4--2-2-2-2--0-0-0-0-0-| 
A:----0-0-0-0-0--2-2-2-2-2--4-4-4-4------------| 
E:---------------------------------------------| 

e:-----------------------------------------0-0-0-------| 
B:-------2--------2--------2-2-2-2------3--3-3-3-3-3-3-| 
G:-----2-2------2-2------2-2-2-2-2----2----2---2-2-2-2-| 
D:-2-2---2----2---2----2---2-2-2-2--0----------0-0-0-0-| 
A:-0---------------------------------------------------| 
E:----------4-------2----------------------------------| 

e:-----0------0-| 
B:----2------0--| 
G:---2------1---| 
D:--2------2----| 
A:-0------2-----| 
E:-------0------| 

e:---------0---------0--| 
B:-------0---0-------0--| 
G:-----2-------2-----2--| 
D:---2-----------2---2--| 
A:-0-----------------0--| 
E:----------------------| 


 

roll up this ad to continue

share this page

See Also: