E-Chords
Jennifer Rostock

Paris(Tabs)

Jennifer Rostock

roll up this ad to continue

Intro 

e|-------------------------------------------------------| 
B|-------------------------------------------------------| 
G|-5-8-10-13--------5-3----------------------------------| 
D|-x-x-x--x---------x-x-6-5------------------------------| 
A|-3-6-8--11--------3-1-x-x------------------------------| 
E|----------------------4-3------------------------------| 

Pre-Chorus 

e|-------------------------------------------------------| 
B|-------------------------------------------------------| 
G|-3-5---------------------------------------------------| 
D|-3-5--6-8----------------------------------------------| 
A|-1-3--6-8----------------------------------------------| 
E|------4-6----------------------------------------------| 

Chorus 

e|-------------------------------------------------------| 
B|-------------------------------------------------------| 
G|-8-------8---------------------------------------------| 
D|-8-8-6---8-6-8---6-8-3-6-8-----------------------------| 
A|-6-8-6---6-6-8---6-8-3-6-8-----------------------------| 
E|---6-4-----4-6---4-6-1-4-6-----------------------------| 
share this page

See Also: