E-Chords
Jennie Lee Riddle

Revelation Song(Tabs)

Jennie Lee Riddle

Key: D

roll up this ad to continue

        

Intro 
E|----|----|----|----| 
B|-3~-|----|----|----| 
G|-2~-|-2~-|-5~-|----| 
D|-0~-|-2~-|-5~-|-5~-| 
A|----|-0~-|-3~-|-5~-| 
E|----|----|----|-3~-| 
   W    W    W    W 

verse 1 

E|----|----|----|----|---------|----------|----------|----------| 
B|-3~-|----|----|----|-3-333333|-33-------|----------|----------| 
G|-2~-|-2~-|-5~-|----|-2-222222|-22-2-2222|22-22-5-55|5555-55---| 
D|-0~-|-2~-|-5~-|-5~-|-0-000000|-00-2-2222|22-22-5-55|5555-55-5-| 
A|----|-0~-|-3~-|-5~-|---------|----0-0000|00-00-3-33|3333-33-5-| 
E|----|----|----|-3~-|---------|----------|----------|--------3-| 
   W    W    W    W    Q EEEEEE  EE Q EEEE EE EE Q EE EEEE EE Q 

E|----------| 
B|----------| 
G|----------| 
D|555555-55-| 
A|555555-55-| 
E|333333-33-| 
  EEEEEE EE 

Chorus 
E|-----|--------|-----------|----------|---------|----------|---------| 
B|-----|--------|-----------|----------|---------|-3-333333-|33-------| 
G|-----|--------|-----------|----------|--555----|-2-222222-|22-2-2222| 
D|-12~-|-12\-(7-|7~)-7/-(10-|10~)-10-5-|555555-55|-0-000000-|00-2-2222| 
A|-12~-|-12\-(7-|7~)-7/-(10-|10~)-10-5-|555555-55|----------|---0-0000| 
E|-10~-|-10\-(5-|5~)-5/-(-8-|-8~)--8-3-|333333-33|----------|---------| 
   W     Q    D  Q    Q   H  H     Q Q  EEEEEE EE  Q EEEEEE  EE Q EEEE 

E|----------|----------|---------| 
B|----------|----------|---------| 
G|22-22-5-55|5555-55---|---------| 
D|22-22-5-55|5555-55-5-|555555-55| 
A|00-00-3-33|3333-33-5-|555555-55| 
E|----------|--------3-|333333-33| 
  EE EE Q EE EEEE EE Q  EEEEEE EE 

verse 2 
E|------------------|------------------|------------------| 
B|-3333333333333333-|------------------|------------------| 
G|-2222222222222222-|-2222222222222222-|-5555555555555555-| 
D|-0000000000000000-|-2222222222222222-|-5555555555555555-| 
A|------------------|-0000000000000000-|-3333333333333333-| 
E|------------------|------------------|------------------| 
   #***#***#***#***   #***#***#***#***   #***#***#***#*** 
   SSSSSSSSSSSSSSSS   SSSSSSSSSSSSSSSS   SSSSSSSSSSSSSSSS 

E|------------------|------------------|------------------| 
B|------------------|-3333333333333333-|------------------| 
G|------------------|-2222222222222222-|-2222222222222222-| 
D|-5555555555555555-|-0000000000000000-|-2222222222222222-| 
A|-5555555555555555-|------------------|-0000000000000000-| 
E|-3333333333333333-|------------------|------------------| 
   #***#***#***#***   #***#***#***#***   #***#***#***#*** 
   SSSSSSSSSSSSSSSS   SSSSSSSSSSSSSSSS   SSSSSSSSSSSSSSSS 

E|------------------|------------------| 
B|------------------|------------------| 
G|-5555555555555555-|------------------| 
D|-5555555555555555-|-5555555555555555-| 
A|-3333333333333333-|-5555555555555555-| 
E|------------------|-3333333333333333-| 
   #***#***#***#***   #***#*** 
   SSSSSSSSSSSSSSSS   SSSSSSSSSSSSSSSS 

Chorus 
E|-----|--------|-----------|----------|---------|----------|---------| 
B|-----|--------|-----------|----------|---------|-3-333333-|33-------| 
G|-----|--------|-----------|----------|--555----|-2-222222-|22-2-2222| 
D|-12~-|-12\-(7-|7~)-7/-(10-|10~)-10-5-|555555-55|-0-000000-|00-2-2222| 
A|-12~-|-12\-(7-|7~)-7/-(10-|10~)-10-5-|555555-55|----------|---0-0000| 
E|-10~-|-10\-(5-|5~)-5/-(-8-|-8~)--8-3-|333333-33|----------|---------| 
   W     Q    D  Q   Q   H   H     Q Q  EEEEEE EE  Q EEEEEE  EE Q EEEE 

E|----------|----------|---------| 
B|----------|----------|---------| 
G|22-22-5-55|5555-55---|---------| 
D|22-22-5-55|5555-55-5-|555555-55| 
A|00-00-3-33|3333-33-5-|555555-55| 
E|----------|--------3-|333333-33| 
  EE EE Q EE EEEE EE Q  EEEEEE EE 

verse 3 
E|-10-----10-----10----10-----|10-----10---5---5---|5--5---5---5--| 
B|---10-----10-----10----10---|--10-----10--5---5--|-5--5---5---5-| 
G|-----11-----11-----------11-|----11--------5---5-|-----5---5----| 
D|----------------------------|--------------------|--------------| 
A|----------------------------|--------------------|--------------| 
E|----------------------------|--------------------|--------------| 
   S S E  S S E  E E   S S E   S S E  E E  SSE SSE  EE SSE SSE EE 

E|8---8---8--8---|8---8--3---3---|3--3---3---3--| 
B|-8---8---8--8--|-8---8--3---3--|-3--3---3---3-| 
G|--9---9------9-|--9------4---4-|-----4---4----| 
D|---------------|---------------|--------------| 
A|---------------|---------------|--------------| 
E|---------------|---------------|--------------| 
  SSE SSE EE SSE  SSE EE SSE SSE  EE SSE SSE EE 

E|-10-----10-----10----10-----|10-----10---5---5---|5--5---5---5--| 
B|---10-----10-----10----10---|--10-----10--5---5--|-5--5---5---5-| 
G|-----11-----11-----------11-|----11--------5---5-|-----5---5----| 
D|----------------------------|--------------------|--------------| 
A|----------------------------|--------------------|--------------| 
E|----------------------------|--------------------|--------------| 
   S S E  S S E  E E   S S E   S S E  E E  SSE SSE  EE SSE SSE EE 

E|8---8---8--8---|8---8--3---3---|3--3---3---3--| 
B|-8---8---8--8--|-8---8--3---3--|-3--3---3---3-| 
G|--9---9------9-|--9------4---4-|-----4---4----| 
D|---------------|---------------|--------------| 
A|---------------|---------------|--------------| 
E|---------------|---------------|--------------| 
  SSE SSE EE SSE  SSE EE SSE SSE  EE SSE SSE EE 

Chorus 
E|-----|--------|-----------|----------|---------|----------|---------| 
B|-----|--------|-----------|----------|---------|-3-333333-|33-------| 
G|-----|--------|-----------|----------|--555----|-2-222222-|22-2-2222| 
D|-12~-|-12\-(7-|7~)-7/-(10-|10~)-10-5-|555555-55|-0-000000-|00-2-2222| 
A|-12~-|-12\-(7-|7~)-7/-(10-|10~)-10-5-|555555-55|----------|---0-0000| 
E|-10~-|-10\-(5-|5~)-5/-(-8-|-8~)--8-3-|333333-33|----------|---------| 
   W     Q    D  Q    Q  H   H     Q Q  EEEEEE EE  Q EEEEEE  EE Q EEEE 

E|----------|----------|---------| 
B|----------|----------|---------| 
G|22-22-5-55|5555-55---|---------| 
D|22-22-5-55|5555-55-5-|555555-55| 
A|00-00-3-33|3333-33-5-|555555-55| 
E|----------|--------3-|333333-33| 
  EE EE Q EE EEEE EE Q  EEEEEE EE 

Final Chorus those are 15's and 16's 
E|-10~-|10\-(5-|5~)-5/-(8-|8~)-8/-15-|151515151515-1515| 
B|-10~-|10\-(5-|5~)-5/-(8-|8~)-8/-15-|151515151515-1515| 
G|-11~-|11\-(5-|5~)-5/-(9-|9~)-9/-16-|161616161616-1516| 
D|-----|-------|----------|----------|-----------------| 
A|-----|-------|----------|----------|-----------------| 
E|-----|-------|----------|----------|-----------------| 
   W    Q    D  Q   Q   H  H   Q  Q   E E E E E E  E E 

Outro those are 10's, 11's, 15's and 16's 
E|-10-101010101010-|-1010-5-5555|55-55-8-88|8888-88-15-|151515151515-1515-| 
B|-10-101010101010-|-1010-5-5555|55-55-8-88|8888-88-15-|151515151515-1515-| 
G|-11-111111111111-|-1111-5-5555|55-55-9-99|9999-88-16-|161616161616-1616-| 
D|-----------------|------------|----------|-----------|------------------| 
A|-----------------|------------|----------|-----------|------------------| 
E|-----------------|------------|----------|-----------|------------------| 
   Q  E E E E E E    E E  Q EEEE EE EE Q EE EEEE EE Q   E E E E E E  E E 

E|----| 
B|-3~-| 
G|-2~-| 
D|-0~-| 
A|----| 
E|----| 


        

Written by Leandro

share this page

See Also: