E-Chords
JEFF the Brotherhood

U Got The Look(Tabs)

JEFF the Brotherhood

Key: D

Intro 
e|------------------------------------------------------------------| 
B|------------------------------------------------------------------| 
G|------------------------------------------------------------------| 
D|-7-7-7-7-7-7-7-7-7-7-7-7-7-7-7-7-7-7-7-7-7-7-7-7-7-7-7-7-7-7-7-7--| 
A|-7-7-7-7-7-7-7-7-7-7-7-7-7-7-7-7-7-7-7-7-7-7-7-7-7-7-7-7-7-7-7-7--| 
D|-7-7-7-7-7-7-7-7-7-7-7-7-7-7-7-7-7-7-7-7-7-7-7-7-7-7-7-7-7-7-7-7--| 

e|----------------------------------------------------------------| 
B|----------------------------------------------------------------| 
G|----------------------------------------------------------------| 
D|---9--9-9-9-9-9-9-0--0-0-0-0-0-0--4-4-4-4-4-4-4-4-4-4-4-4-4-4-4-| 
A|---9--9-9-9-9-9-9-0--0-0-0-0-0-0--4-4-4-4-4-4-4-4-4-4-4-4-4-4-4-| 
D|---9--9-9-9-9-9-9-0--0-0-0-0-0-0--4-4-4-4-4-4-4-4-4-4-4-4-4-4-4-| 


Verse: 
e|------------------------------------------------------| 
B|------------------------------------------------------| 
G|------------------------------------------------------| 
D|--4------7-----9-----12-----4-------------------------| 
A|--4-x32--7-x8--9-x8--12-x8--4-x16---------------------| 
D|--4------7-----9-----12-----4-------------------------| 

e|------------------------------------------------------| 
B|------------------------------------------------------| 
G|------------------------------------------------------| 
D|--4------7-----9-----12-----4------7--7---4-----------| 
A|--4-x32--7-x8--9-x8--12-x8--4-x12--7--7---4-x16-------| 
D|--4------7-----9-----12-----4------7--7---4-----------| 

Chorus: 
e|---------------------------------------------| 
B|---------------------------------------------| 
G|---------------------------------------------| 
D|---------------------------------------------| x2 
A|--12-11-12-11-12-11-12-11-12-11-7--9--9-9----| 
D|---0--0--0--0--0--0--0--0--0--0-0--0--0-0----| 

e|-----| 
B|-----| 
G|-----| 
D|--4--| x32 ('You got the look, you got the look, you got the loo-oo-ook') 
A|--4--| 
D|--4--| 

e|---------------------------------------------|     e|---------------| 
B|---------------------------------------------|     B|---------------| 
G|---------------------------------------------|     G|---------------| 
D|---------------------------------------------|x2   D|--4------7--7--| 
A|--12-11-12-11-12-11-12-11-12-11-7--9--9-9----|     A|--4-x28--7--7--| 
D|---0--0--0--0--0--0--0--0--0--0-0--0--0-0----|     D|--4------7--7--| 

Verse 2: 
e|------------------------------------------------------| 
B|------------------------------------------------------| 
G|------------------------------------------------------| 
D|--4------7-----9-----12-----4-------------------------| 
A|--4-x32--7-x8--9-x8--12-x8--4-x16---------------------| 
D|--4------7-----9-----12-----4-------------------------| 

e|------------------------------------------------------| 
B|------------------------------------------------------| 
G|------------------------------------------------------| 
D|--4------7-----9-----12-----4------7--7---4-----------| 
A|--4-x32--7-x8--9-x8--12-x8--4-x12--7--7---4-x16-------| 
D|--4------7-----9-----12-----4------7--7---4-----------| 

Chorus 2: 
e|---------------------------------------------|    e|-----| 
B|---------------------------------------------|    B|-----| 
G|---------------------------------------------|    G|-----| 
D|---------------------------------------------|x2  D|--4--| x32  
A|--12-11-12-11-12-11-12-11-12-11-7--9--9-9----|    A|--4--| 
D|---0--0--0--0--0--0--0--0--0--0-0--0--0-0----|    D|--4--| 

e|---------------------------------------------|     e|--------------------| 
B|---------------------------------------------|     B|--------------------| 
G|---------------------------------------------|     G|--------------------| 
D|---------------------------------------------|x2   D|--4------7--7--4~~--| 
A|--12-11-12-11-12-11-12-11-12-11-7--9--9-9----|     A|--4-x28--7--7--4~~--| 
D|---0--0--0--0--0--0--0--0--0--0-0--0--0-0----|     D|--4------7--7--4~~--| 


Bridge: 
e|-----------------------------------------------------------| 
B|-----------------------------------------------------------| 
G|-----------------------------------------------------------| 
D|--9--9--------------7--7--9--7----12--12--14-12-14-12------| x3 
A|--9--9--12b14b12----7--7--7--7----12--12--12-12-12-12------| 
D|--9--9--------------7--7--7--7----12--12--12-12-12-12------| 

e|-----------------------------------------------------------| 
B|-----------------------------------------------------------| 
G|-----------------------------------------------------------| 
D|--9--9--------------7--7--9--7----12--12--12-12-12-12------| 
A|--9--9--12b14b12----7--7--7--7----12--12--12-12-12-12------| 
D|--9--9--------------7--7--7--7----12--12--12-12-12-12------| 


Outro: 
e|--------------------| 
B|--------------------| 
G|--------------------| 
D|--4-----2-----7-----| x7 
A|--4-x8--2-x8--7-x8--| 
D|--4-----2-----7-----| 

e|-------------------| 
B|-------------------| 
G|-------------------| 
D|--4-----2-----7~~--|  
A|--4-x8--2-x8--7~~--| 
D|--4-----2-----7~~--|  

roll up this ad to continue

share this page

See Also: