E-Chords
JEFF the Brotherhood

Heavy Damage(Tabs)

JEFF the Brotherhood

Intro 
e|------------| 
B|------------| 
G|------------| 
D|--0~---10~--| 
A|--0~---10~--| 
D|--0~---10~--| 

e|-----------------------------------------------------------------------| 
B|-----------------------------------------------------------------------| 
G|-----------------------------------------------------------------------| 
D|--13p10-10-10--10-10-10-13p10-10-10--10-10-10-13p10-10-10--10-10-10----| 
A|--10-10-13-10--10-10-10-10-10-13-10--10-10-10-10-10-13-10--10-10-10----| 
D|--10-10-10-10--10-10-10-10-10-10-10--10-10-10-10-10-10-10--10-10-10----| 

e|----------------------------------------------------------------------------| 
B|----------------------------------------------------------------------------| 
G|----------------------------------------------------------------------------| 
D|--15p13-13-13--13-13-13-15p13-13-13--15p12-12--12-12-12-15p12-12--12-12-12--| 
A|--13-13-15-13--13-13-13-13-13-15-13--12-12-15--12-12-12-12-12-15--12-12-12--| 
D|--13-13-13-13--13-13-13-13-13-13-13--12-12-12--12-12-12-12-12-12--12-12-12--| 

e|-------------------------------------------| 
B|-------------------------------------------| 
G|-------------------------------------------| 
D|--8h10-10-8-10-10-8h10-10-8-10-10-8h10-10--| x2 
A|--8h10-10-8-10-10-8h10-10-8-10-10-8h10-10--| 
D|--8h10-10-8-10-10-8h10-10-8-10-10-8h10-10--| 

e|----------------------------------------------------------------------------| 
B|----------------------------------------------------------------------------| 
G|----------------------------------------------------------------------------| 
D|--15p13-13-13--13-13-13-15p13-13-13--15p13-13-13--13-13-13-15p13-13-13------| 
A|--13-13-15-13--13-13-13-13-13-15-13--13-13-15-13--13-13-13-13-13-15-13------| 
D|--13-13-13-13--13-13-13-13-13-13-13--13-13-13-13--13-13-13-13-13-13-13------| 

e|-------------------------------------------| 
B|-------------------------------------------| 
G|-------------------------------------------| 
D|--8h10-10-8-10-10-8h10-10-8-10-10-8h10-10--| x2 
A|--8h10-10-8-10-10-8h10-10-8-10-10-8h10-10--| 
D|--8h10-10-8-10-10-8h10-10-8-10-10-8h10-10--| 

e|----------------------------------------------------------------------------| 
B|----------------------------------------------------------------------------| 
G|----------------------------------------------------------------------------| 
D|--15p13-13-13--13-13-13-15p13-13-13--15p13-13-13--13-13-13-15p13-13-13------| 
A|--13-13-15-13--13-13-13-13-13-15-13--13-13-15-13--13-13-13-13-13-15-13------| 
D|--13-13-13-13--13-13-13-13-13-13-13--13-13-13-13--13-13-13-13-13-13-13------| 


Verse 1: 
e|------------------------------| 
B|------------------------------| 
G|------------------------------| 
D|--10------6-------3------5-8--| 
A|--10-x32--6-x16---3-x12--5-8--| 
D|--10------6-------3------5-8--| 

e|------------------------------| 
B|------------------------------| 
G|------------------------------| 
D|--10------6-------3-----------| 
A|--10-x32--6-x16---3-x16-------| 
D|--10------6-------3-----------| 

Chorus 1: 
e|-----------------------------------------------------------------------| 
B|-----------------------------------------------------------------------| 
G|-----------------------------------------------------------------------| 
D|--13p10-10-10--10-10-10-13p10-10-10--10-10-10-13p10-10-10--10-10-10----| 
A|--10-10-13-10--10-10-10-10-10-13-10--10-10-10-10-10-13-10--10-10-10----| 
D|--10-10-10-10--10-10-10-10-10-10-10--10-10-10-10-10-10-10--10-10-10----| 

e|----------------------------------------------------------------------------| 
B|----------------------------------------------------------------------------| 
G|----------------------------------------------------------------------------| 
D|--15p13-13-13--13-13-13-15p13-13-13--15p13-13-13--13-13-13-15p13-13-13------| 
A|--13-13-15-13--13-13-13-13-13-15-13--13-13-15-13--13-13-13-13-13-15-13------| 
D|--13-13-13-13--13-13-13-13-13-13-13--13-13-13-13--13-13-13-13-13-13-13------| 

e|-----------------------------------------------------------------------| 
B|-----------------------------------------------------------------------| 
G|-----------------------------------------------------------------------| 
D|--13p10-10-10--10-10-10-13p10-10-10--10-10-10-13p10-10-10--10-10-10----| 
A|--10-10-13-10--10-10-10-10-10-13-10--10-10-10-10-10-13-10--10-10-10----| 
D|--10-10-10-10--10-10-10-10-10-10-10--10-10-10-10-10-10-10--10-10-10----| 

e|----------------------------------------------------------------------------| 
B|----------------------------------------------------------------------------| 
G|----------------------------------------------------------------------------| 
D|--15p13-13-13--13-13-13-15p13-13-13--15p12-12--12-12-12-15p12-12--12-12-12--| 
A|--13-13-15-13--13-13-13-13-13-15-13--12-12-15--12-12-12-12-12-15--12-12-12--| 
D|--13-13-13-13--13-13-13-13-13-13-13--12-12-12--12-12-12-12-12-12--12-12-12--| 

Pre-verse 
e|------------------------------| 
B|------------------------------| 
G|------------------------------| 
D|--10------6-------3------5-8--| 
A|--10-x32--6-x16---3-x12--5-8--| 
D|--10------6-------3------5-8--| 

Verse 2: 
e|------------------------------| 
B|------------------------------| 
G|------------------------------| 
D|--10------6-------3-----------| x2 
A|--10-x32--6-x16---3-x16-------| 
D|--10------6-------3-----------| 


Chorus 2: 
e|-----------------------------------------------------------------------| 
B|-----------------------------------------------------------------------| 
G|-----------------------------------------------------------------------| 
D|--13p10-10-10--10-10-10-13p10-10-10--10-10-10-13p10-10-10--10-10-10----| 
A|--10-10-13-10--10-10-10-10-10-13-10--10-10-10-10-10-13-10--10-10-10----| 
D|--10-10-10-10--10-10-10-10-10-10-10--10-10-10-10-10-10-10--10-10-10----| 

e|----------------------------------------------------------------------------| 
B|----------------------------------------------------------------------------| 
G|----------------------------------------------------------------------------| 
D|--15p13-13-13--13-13-13-15p13-13-13--15p12-12--12-12-12-15p12-12--12-12-12--| 
A|--13-13-15-13--13-13-13-13-13-15-13--12-12-15--12-12-12-12-12-15--12-12-12--| 
D|--13-13-13-13--13-13-13-13-13-13-13--12-12-12--12-12-12-12-12-12--12-12-12--| 

e|-----------------------------------------------------------------------| 
B|-----------------------------------------------------------------------| 
G|-----------------------------------------------------------------------| 
D|--13p10-10-10--10-10-10-13p10-10-10--10-10-10-13p10-10-10--10-10-10----| 
A|--10-10-13-10--10-10-10-10-10-13-10--10-10-10-10-10-13-10--10-10-10----| 
D|--10-10-10-10--10-10-10-10-10-10-10--10-10-10-10-10-10-10--10-10-10----| 

e|----------------------------------------------------------------------------| 
B|----------------------------------------------------------------------------| 
G|----------------------------------------------------------------------------| 
D|--15p13-13-13--13-13-13-15p13-13-13--15p12-12--12-12-12-15p12-12--12-12-12--| 
A|--13-13-15-13--13-13-13-13-13-15-13--12-12-15--12-12-12-12-12-15--12-12-12--| 
D|--13-13-13-13--13-13-13-13-13-13-13--12-12-12--12-12-12-12-12-12--12-12-12--| 

e|----------| 
B|----------| 
G|----------| 
D|--11------| 
A|--11-x32--| 
D|--11------| 

Solo: 
e|-----------------------------------------------------------------------------------------------| 
B|-----------------------------------------------------------------------------------------------| 
G|-----------------------------------------------------------------------------------------------| 
D|--16b18-16b18-16b18-16b18-16b18b16-14---------16b18-16b18-16b18-16b18-16b18b16-14--------------| 
A|--------------------------------------16--16--------------------------------------16--16-16-16-| 
D|-----------------------------------------------------------------------------------------------| 

e|---------------------------------------------------| 
B|---------------------------------------------------| 
G|---------------------------------------------------| 
D|---------------------------------------------------| x2 
A|--14-11-11-16-11-11-14-11-11-16-11-11-14-11-16-11--| 
D|---------------------------------------------------| 

e|-----------------------------------------------------------------------------------------------| 
B|-----------------------------------------------------------------------------------------------| 
G|-----------------------------------------------------------------------------------------------| 
D|--16b18-16b18-16b18-16b18-16b18b16-14---------16b18-16b18-16b18-16b18-16b18b16-14--------------| 
A|--------------------------------------16--16--------------------------------------16--16-16-16-| 
D|-----------------------------------------------------------------------------------------------| 

e|---------------------------------------------------| 
B|---------------------------------------------------| 
G|---------------------------------------------------| 
D|---------------------------------------------------| x2 
A|--14-11-11-16-11-11-14-11-11-16-11-11-14-11-16-11--| 
D|---------------------------------------------------| 


e|-----------------------------------------------------------------------| 
B|-----------------------------------------------------------------------| 
G|-----------------------------------------------------------------------| 
D|--13p10-10-10--10-10-10-13p10-10-10--10-10-10-13p10-10-10--10-10-10----| 
A|--10-10-13-10--10-10-10-10-10-13-10--10-10-10-10-10-13-10--10-10-10----| 
D|--10-10-10-10--10-10-10-10-10-10-10--10-10-10-10-10-10-10--10-10-10----| 


Verse 3: 
e|------------------------------| 
B|------------------------------| 
G|------------------------------| 
D|--10------6-------3-----------| x2 
A|--10-x32--6-x16---3-x16-------| 
D|--10------6-------3-----------| 

e|------------------------------| 
B|------------------------------| 
G|------------------------------| 
D|--10------6-------3------5-8--| 
A|--10-x32--6-x16---3-x12--5-8--| 
D|--10------6-------3------5-8--| 

Chorus 3: 
e|-----------------------------------------------------------------------| 
B|-----------------------------------------------------------------------| 
G|-----------------------------------------------------------------------| 
D|--13p10-10-10--10-10-10-13p10-10-10--10-10-10-13p10-10-10--10-10-10----| 
A|--10-10-13-10--10-10-10-10-10-13-10--10-10-10-10-10-13-10--10-10-10----| 
D|--10-10-10-10--10-10-10-10-10-10-10--10-10-10-10-10-10-10--10-10-10----| 

e|----------------------------------------------------------------------------| 
B|----------------------------------------------------------------------------| 
G|----------------------------------------------------------------------------| 
D|--15p13-13-13--13-13-13-15p13-13-13--15p12-12--12-12-12-15p12-12--12-12-12--| 
A|--13-13-15-13--13-13-13-13-13-15-13--12-12-15--12-12-12-12-12-15--12-12-12--| 
D|--13-13-13-13--13-13-13-13-13-13-13--12-12-12--12-12-12-12-12-12--12-12-12--| 

e|-----------------------------------------------------------------------| 
B|-----------------------------------------------------------------------| 
G|-----------------------------------------------------------------------| 
D|--13p10-10-10--10-10-10-13p10-10-10--10-10-10-13p10-10-10--10-10-10----| 
A|--10-10-13-10--10-10-10-10-10-13-10--10-10-10-10-10-13-10--10-10-10----| 
D|--10-10-10-10--10-10-10-10-10-10-10--10-10-10-10-10-10-10--10-10-10----| 

e|----------------------------------------------------------------------------| 
B|----------------------------------------------------------------------------| 
G|----------------------------------------------------------------------------| 
D|--15p13-13-13--13-13-13-15p13-13-13--15p12-12--12-12-12-15p12-12--12-12-12--| 
A|--13-13-15-13--13-13-13-13-13-15-13--12-12-15--12-12-12-12-12-15--12-12-12--| 
D|--13-13-13-13--13-13-13-13-13-13-13--12-12-12--12-12-12-12-12-12--12-12-12--| 

e|----------| 
B|----------| 
G|----------| 
D|--11------| 
A|--11-x26--| 
D|--11------| 
 

roll up this ad to continue

share this page

See Also: