E-Chords
JEFF the Brotherhood

Country Life(Tabs)

JEFF the Brotherhood


E|------------------------------| 
B|------------------------------| 
G|------------------------------| 
D|-5-5-5-5-5-5-5-5-5-5-5-5-5--3-|   x2 
A|-5-5-5-5-5-5-5-5-5-5-5-5-5--3-| 
D|-5-5-5-5-5-5-5-5-5-5-5-5-5--3-| 

E|---------------| 
B|---------------| 
G|---------------| 
D|-5-5--8-8--3-3-| 
A|-5-5--8-8--3-3-| 
D|-5-5--8-8--3-3-| 

E|-----------------------------------------------------------------| 
B|-----------------------------------------------------------------| 
G|-----------------------------------------------------------------| 
D|-5-5-5-5-5-5-5-5-5-5-5-5-5-5-7-7-8-8-8-8-8-8-8-8-3-3-3-3-3-3-3-3-| 
A|-5-5-5-5-5-5-5-5-5-5-5-5-5-5-7-7-8-8-8-8-8-8-8-8-3-3-3-3-3-3-3-3-| x2 
D|-5-5-5-5-5-5-5-5-5-5-5-5-5-5-7-7-8-8-8-8-8-8-8-8-3-3-3-3-3-3-3-3-| 

E|------------------------------| 
B|------------------------------| 
G|------------------------------| 
D|-5-5-5-5-5-5-5-5-5-5-5-5-5--3-|   x2 
A|-5-5-5-5-5-5-5-5-5-5-5-5-5--3-| 
D|-5-5-5-5-5-5-5-5-5-5-5-5-5--3-| 

E|---------------| 
B|---------------| 
G|---------------| 
D|-5-5--8-8--3-3-| 
A|-5-5--8-8--3-3-| 
D|-5-5--8-8--3-3-| 

E|-----------------------------------------------------------------| 
B|-----------------------------------------------------------------| 
G|-----------------------------------------------------------------| 
D|-5-5-5-5-5-5-5-5-5-5-5-5-5-5-7-7-8-8-8-8-8-8-8-8-3-3-3-3-3-3-3-3-| 
A|-5-5-5-5-5-5-5-5-5-5-5-5-5-5-7-7-8-8-8-8-8-8-8-8-3-3-3-3-3-3-3-3-| x2 
D|-5-5-5-5-5-5-5-5-5-5-5-5-5-5-7-7-8-8-8-8-8-8-8-8-3-3-3-3-3-3-3-3-| 

E|-----------------------------------------------------------------| 
B|-----------------------------------------------------------------| 
G|-----------------------------------------------------------------| 
D|-5-5-5-5-5-5-5-5-3-3-3-3-3-3-3-3-1-1-1-1-1-1-1-1-3-3-3-3-3-3-3-3-| x2 
A|-5-5-5-5-5-5-5-5-3-3-3-3-3-3-3-3-1-1-1-1-1-1-1-1-3-3-3-3-3-3-3-3-| 
D|-5-5-5-5-5-5-5-5-3-3-3-3-3-3-3-3-1-1-1-1-1-1-1-1-3-3-3-3-3-3-3-3-| 


E|------| 
B|------| 
G|------| 
D|-5-5--| 
A|-5-5--| 
D|-5-5--| 

E|------------------------------| 
B|------------------------------| 
G|------------------------------| 
D|-5-5-5-5-5-5-5-5-5-5-5-5-5--3-|   x3 
A|-5-5-5-5-5-5-5-5-5-5-5-5-5--3-| 
D|-5-5-5-5-5-5-5-5-5-5-5-5-5--3-| 

E|---------------| 
B|---------------| 
G|---------------| 
D|-5-5--8-8--3-3-| 
A|-5-5--8-8--3-3-| 
D|-5-5--8-8--3-3-| 

E|-----------------------------------------------------------------| 
B|-----------------------------------------------------------------| 
G|-----------------------------------------------------------------| 
D|-1-1-1-1-1-1-1-1-1-1-1-1-1-1-1-1-3-3-3-3-3-3-3-3-3-3-3-3-3-3-3-3-| x2 
A|-1-1-1-1-1-1-1-1-1-1-1-1-1-1-1-1-3-3-3-3-3-3-3-3-3-3-3-3-3-3-3-3-| 
D|-1-1-1-1-1-1-1-1-1-1-1-1-1-1-1-1-3-3-3-3-3-3-3-3-3-3-3-3-3-3-3-3-| 


E|-----------------------------------------------------------------| 
B|-----------------------------------------------------------------| 
G|-----------------------------------------------------------------| 
D|-5-5-5-5-5-5-5-5-3-3-3-3-3-3-3-3-1-1-1-1-1-1-1-1-3-3-3-3-3-3-3-3-| x2 
A|-5-5-5-5-5-5-5-5-3-3-3-3-3-3-3-3-1-1-1-1-1-1-1-1-3-3-3-3-3-3-3-3-| 
D|-5-5-5-5-5-5-5-5-3-3-3-3-3-3-3-3-1-1-1-1-1-1-1-1-3-3-3-3-3-3-3-3-| 


E|------| 
B|------| 
G|------| 
D|-5-5--| 
A|-5-5--| 
D|-5-5--| 

E|------------------------------| 
B|------------------------------| 
G|------------------------------| 
D|-5-5-5-5-5-5-5-5-5-5-5-5-5--3-|   x3 
A|-5-5-5-5-5-5-5-5-5-5-5-5-5--3-| 
D|-5-5-5-5-5-5-5-5-5-5-5-5-5--3-| 

E|---------------| 
B|---------------| 
G|---------------| 
D|-5-5--8-8--3-3-| 
A|-5-5--8-8--3-3-| 
D|-5-5--8-8--3-3-| 

roll up this ad to continue

share this page

See Also: