E-Chords
Jay-Z

Bonnie And Clyde (intro)(Tabs)

Jay-Z

 
  -------1-1-0----    ----------------- 
  -3--------------    -------0-3-1-0-1- 
  ---2------------    --2-------------2 
  ----------------    ----2------------ 
  ----------------    ----------------- 
  ----------------    ----------------- 
 
 
  ------1-1-0-----    ----------------- 
  -3--------------    -------0-3-1-0-1- 
  ---2------------    -2--------------2 
  ----------------    ---2------------- 
  ----------------    ----------------- 
  ----------------    ----------------- 
Sam Triebels 

roll up this ad to continue

share this page

See Also: