E-Chords
Jay Jay Johanson

Humiliation(Tabs)

Jay Jay Johanson

roll up this ad to continue

Key: Eb

Tunning: Eb Ab Db Gb Bb Eb 



Intro & Verse 0:00 

Piano 
Eb|----7-6-7-6-7-6-7-6--|-6-4-6-4-6-4-6-4----| 
Bb|---------------------|--------------------| 
Gb|---------------------|--------------------| 
Db|---------------------|--------------------| 
Ab|---------------------|--------------------| 
Eb|---------------------|--------------------| 
  |                     |                    |  
Eb|---------------------|--------------------| 
Bb|---------------------|--------------------| 
Gb|---------------------|--------------------| 
Db|-------------6--9----|----------6--8------| 
Ab|----------6----------|-------6------------| 
Eb|------4--------------|---4----------------| 



Chorus 1:02 

Eb---------------------------------------------| 
Bb------4--2-------4--2------5--4------5--4----| 
Gb---------------------------------------------| 
Db-----2--------4---------6---------6----------| 
Ab----2--------4---------6---------6-----------| 
Eb---0--------2---------4---------4------------| 



Bridge 1:25 

Eb|----7-6-7-6-7-6-7-6--|-6-4-6-4-6-4-6-4----| 
Bb|---------------------|--------------------| 
Gb|---------------------|--------------------| 
Db|---------------------|--------------------| 
Ab|---------------------|--------------------| 
Eb|---------------------|--------------------| 
  |                     |                    | 
Eb|---------------------|--------------------| 
Bb|---------------------|--------------------| 
Gb|---------------------|--------------------| 
Db|-------------6--9----|----------6--8------| 
Ab|----------6----------|-------6------------| 
Eb|------4--------------|---4----------------| 



verse 1:37 

Eb|---------------------|--------------------| 
Bb|---------------------|--------------------| 
Gb|---------------------|--------------------| 
Db|-------------6--9----|----------6--8------| 
Ab|----------6----------|-------6------------| 
Eb|------4--------------|---4----------------| 



Chorus 2:02 

Eb---------------------------------------------| 
Bb------4--2-------4--2------5--4------5--4----| 
Gb---------------------------------------------| 
Db-----2--------4---------6---------6----------| 
Ab----2--------4---------6---------6-----------| 
Eb---0--------2---------4---------4------------| 



Bridge and Outro 2:26 

Eb|----7-6-7-6-7-6-7-6--|-6-4-6-4-6-4-6-4----| 
Bb|---------------------|--------------------| 
Gb|---------------------|--------------------| 
Db|---------------------|--------------------| 
Ab|---------------------|--------------------| 
Eb|---------------------|--------------------| 
  |                     |                    |play to the end. 
Eb|---------------------|--------------------| 
Bb|---------------------|--------------------| 
Gb|---------------------|--------------------| 
Db|-------------6--9----|----------6--8------| 
Ab|----------6----------|-------6------------| 
Eb|------4--------------|---4----------------| 
share this page

See Also: