E-Chords
Jason Becker

Serrana(Tabs)

Jason Becker

Key: D
 
-22-------------------------------------------------14-17p14------------------ 
-------------------15----------------------------15----------15--------------- 
----------------14----14----------------------14----------------14------------ 
-------------16----------16----------------16----------------------16--------- 
----------17----------------17-12----12-17----------------------------17------ 
----------------------------------14------------------------------------------ 
D major  
 
----------------14-17p14----------14-22p17----------------------------17------ 
-------------15----------15----15----------19----------------------19--------- 
----------14----------------14----------------19----------------19------------ 
-------16----------------------------------------19-16----16-19--------------- 
-12-17-------------------------------------------------17--------------------- 
------------------------------------------------------------------------------ 
 
 
-19p15----------------------------15-22p19-------------------------19-22------ 
-------15----------------------15----------20-------------------20------------ 
----------16----------------16----------------19-------------19--------------- 
-------------17----------17----------------------21-17-17-21------------------ 
----------------17-14-17------------------------------------------------------ 
------------------------------------------------------------------------------ 
G major  
 
-22p19----------19-19p15----------15-15p10----------------------------10------ 
-------20----20----------15----15----------12----------------------12--------- 
----------19----------------16----------------12----------------12------------ 
-------------------------------------------------12----------12--------------- 
----------------------------------------------------14-10-14------------------ 
------------------------------------------------------------------------------ 
 
 
-12p9-----------------------9-12/17p12----------------------------12---------- 
------10-----------------10------------14----------------------14------------- 
---------9-------------9------------------14----------------14---------------- 
-----------11-------11-----------------------14----------14------------------- 
--------------12-12-----------------------------16-12-16---------------------- 
------------------------------------------------------------------------------ 
A major  
 
-17p12----------12-12p9---------9-9p5----------------------------------------- 
-------14----14---------10---10-------5--------------------------------------- 
----------14---------------9------------6---------------6--------------------- 
------------------------------------------7-----------7----------------------- 
--------------------------------------------7-4---4-7------------------------- 
------------------------------------------------5----------------------------- 
 
 
-14p10---------------------------10/17p14----------------------------14------- 
-------10---------------------10----------15----------------------15---------- 
----------11---------------11----------------14----------------14------------- 
-------------12---------12----------------------16----------16---------------- 
----------------12-9-12----------------------------17-12-17------------------- 
------------------------------------------------------------------------------ 
D major  
 
-17p14----------14-18p14----------14-16p14----------14-17--------------------- 
-------15----15----------15----15----------15----15--------------------------- 
----------14----------------14----------------14------------------------------ 
------------------------------------------------------------------------------ 
------------------------------------------------------------------------------ 
------------------------------------------------------------------------------ 
 
 
-21p17----------------------------17-21p17----------22p17----------17--------- 
-------19----------------------19----------19----19-------19----19------------ 
----------18----------------18----------------18-------------18--------------- 
-------------19----------19--------------------------------------------------- 
----------------21-16-21------------------------------------------------------ 
------------------------------------------------------------------------------ 
F# minor play 2x  
 
-19p14----------------------------14-19p14----------14-21p14----------14------ 
-------15----------------------15----------15----15----------15----15--------- 
----------16----------------16----------------16----------------16------------ 
-------------16----------16--------------------------------------------------- 
----------------17-14-17------------------------------------------------------ 
------------------------------------------------------------------------------ 
B minor play 2x  
 
-24p19-------------------------------20p15------------------------------------ 
-------20-------------------------20-------16-------------------------16------ 
----------21-------------------21-------------17-------------------17--------- 
-------------21-------------21-------------------17-------------17------------ 
----------------22-19----22-------------------------18-15----18--------------- 
----------------------19----------------------------------15------------------ 
E minor C minor  
 
-16p11----------------------------11-16p11----------11-18p11----------11------ 
-------12----------------------12----------12----12----------12----12--------- 
----------13----------------13----------------13----------------13------------ 
-------------13----------13--------------------------------------------------- 
----------------14-11-14------------------------------------------------------ 
------------------------------------------------------------------------------ 
Ab minor  
 
-15p11----------------------------11-18p15----------------------------15------ 
-------11----------------------11----------16----------------------16--------- 
----------12----------------12----------------15----------------15------------ 
-------------13----------13----------------------17----------17--------------- 
----------------13-10-13----------------------------18-13-18------------------ 
------------------------------------------------------------------------------ 
Eb major  
 
-23p18----------------------------18-23p18------------------------------------ 
-------20----------------------20----------20--------------------------------- 
----------20----------------20----------------20------------------------------ 
-------------20-17----17-20----------------------20-17------------------------ 
-------------------18----------------------------------18--------------------- 
------------------------------------------------------------------------------ 
 
 
----------------13-16p13----19p16----22p19----------------------17-18-19------ 
-15p12----12-15----------15-------18-------21----------------21--------------- 
-------13-------------------------------------22-19----19-22------------------ 
----------------------------------------------------21------------------------ 
------------------------------------------------------------------------------ 
------------------------------------------------------------------------------ 
D fully diminished 7th  
 
-20p15----------------------------15-20p15----------15-22p15----------15------ 
-------16----------------------16----------16----16----------16----16--------- 
----------17----------------17----------------17----------------17------------ 
-------------17----------17--------------------------------------------------- 
----------------18-15-18------------------------------------------------------ 
------------------------------------------------------------------------------ 
C minor play 2x  
 
-20p17----------------------------17|20p17----------17p14----------14--------- 
-------19----------------------19---|------19-------------16----------16------ 
----------20-17----------17-20------|---------20-17----------17-14------------ 
----------------19-16-19------------|----------------------------------------- 
------------------------------------|----------------------------------------- 
------------------------------------|----------------------------------------- 
C fully diminished 7th  
 
-17p14----------------------------14-17p14------------------------------------ 
-------16----------------------16----------16-------16p13--------------------- 
----------17-14----------14-17----------------17-14-------14-------14-11------ 
----------------16-13-16-------------------------------------16-13------------ 
------------------------------------------------------------------------------ 
------------------------------------------------------------------------------ 
 
 
------------------------------------------------------------------------------ 
------------------------------------------------------------------------------ 
-12----------------13----------------12-----------------11-------------------- 
------------------------------------------------------------------------------ 
------------------------------------------------------------------------------ 
------------------------------------------------------------------------------ 
G  
 
------------------------------------------------------------------------------ 
------------------------------------------------------------------------------ 
-12--------------------------------------------------------------------------- 
------------------------------------------------------------------------------ 
------------------------------------------------------------------------------ 
------------------------------------------------------------------------------ 
 
 
_______________________________________________________ 
Contribuição: Caio Henrique Leal([email protected]) 

roll up this ad to continue

share this page

See Also: