E-Chords
Jason Becker

River Of Longing Intro(Tabs)

Jason Becker

Key: E
e)0---0----4--5--7---5--0-0-| 
B)0---2----4---5--7--5--0-0-| 
G)1---2----4---6--8--6--1-1-| 
D)2---0----6---7--9--7--2-2-| 
A)2---0----6---7--9--7--2-2-| 
E)0---2----4---5--7--5--0-0-| 


e)----------------------------------------------------------------------------| 
B)---9-12---------------------------------------------------------------------| 
G)--9-----13b(14)13(14)13--11--9--14b(16)-13------11b(13)11p9--11b(13)r-9---9-| 
D)-9--------------------------------------------------------------------------| 
A)----------------------------------------------------------------------------| 
E)----------------------------------------------------------------------------| 


e)---------------------------------------------------------------------------| 
B)10b(12)-----------------------12b(14)-12----------------------------12-----| 
G)--------11b(12)11--9--11--13---------------9----9-----13b(14)13--14--------| 
D)---------------------------------------------------------------------------| 
A)---------------------------------------------------------------------------| 
E)---------------------------------------------------------------------------| 

e)-------------------------------------------------------------------------| 
B)-------------------------------------------------------------------------| 
G)13b(14)13-11--9---13b(14)13--11-9-11b(12)--11-9-11--8---9--11--9b(11)9---| 
D)-------------------------------------------------------------------------| 
A)-------------------------------------------------------------------------| 
E)-------------------------------------------------------------------------| 


e)------------------------------------------------------------------------| 
B)12b(14)-12--------------------------------------------------------------| 
G)------------(11)(13)--(14)-(13)-----------------------------------------| 
D)------------------------------------------------------------------------| 
A)------------------------------------------------------------------------| 
E)------------------------------------------------------------------------| 

roll up this ad to continue

share this page

See Also: