E-Chords
Jason Becker

Ocus Pocus(Tabs)

Jason Becker

Key: E
 
  
 
 
 
 
   
  W          Q  Q   Q   Q     Q.    S  S  Q  Q    Q  Q   Q   Q 
|----------|-------14------|-15----15-17-15-----|-------12------| 
|-3--------|----7------15--|----------20-19-----|----5------14--| 
|----------|---------------|--------------------|---------------| 
|----------|---------------|--------------------|---------------| 
|----------|-5-------------|--------------------|-4-------------| 
|----------|---------------|--------------------|---------------| 
 
 
   Q.    S  S  Q  Q     Q   Q   Q   Q     Q.    S  S  Q  Q     Q   Q   Q   Q 
|-14----14-15-14-----|-----14--17------|-17----17-19--------|---------15------| 
|----------19-17-----|-------------19--|----------22-20-----|-----17------17--| 
|--------------------|-----------------|-------------23-----|-----------------| 
|--------------------|-16--------------|--------------------|-----------------| 
|--------------------|-----------------|--------------------|-19--------------| 
|--------------------|-----------------|--------------------|-----------------| 
 
 
   Q.    S  S  E E  S S  S S    H     Q   E.  S 
|-15----15-17----------------|------------------| 
|----------20-19---20---22---|-24----24--22-----| 
|-------------21-------------|---------------23-| 
|----------------------------|------------------| 
|----------------------------|------------------| 
|----------------------------|------------------| 
 
 
   S  E  S  +Q    +E.  S  +S   E  S 
|----21-21-(21)--(21)-19-(19)-21-22--| 
|------------------------------------| 
|-23---------------------------------| 
|------------------------------------| 
|------------------------------------| 
|------------------------------------| 
 
 
   E.  S  +E   E  S  S  S  S  S  S  S  S 
|-24--24-(24)-22-------------19----------| 
|----------------24-------------19-------| 
|-------------------21----21-------19----| 
|----------------------21-------------21-| 
|----------------------------------------| 
|----------------------------------------| 
 
 
   H     +E   S  S  S  S  S  S    H     +S   S  S  S  S  S  S  S 
|------------------------------|---------------------------------| 
|------------------22-22-------|---------------------22-22-------| 
|------------------------23-21-|-21----(21)----------------23-21-| 
|-19----(19)-19-21-------------|------------21-19-21-------------| 
|------------------------------|---------------------------------| 
|------------------------------|---------------------------------| 
 
 
   H     +S   S  S  S  S  S  S  S 
|---------------------------------| 
|---------------------22-22-------| 
|-19----(19)----------------23-21-| 
|------------21-19-21-------------| 
|---------------------------------| 
|---------------------------------| 
 
 
   H     +S   S  S  S  S  S  S  S    H     E.  S  +S   E. 
|---------------------------------|------------------------| 
|---------------------------------|------------------------| 
|---------------------------------|------------------------| 
|-23----(23)----------24-24-21-19-|-19----21--23-(23)-24---| 
|---------------------------------|------------------------| 
|------------24-22-24-------------|------------------------| 
 
 
   H     S  S  S  S  E  S  S    +Q.    S  S  E S  S  S  S  S  S 
|----------------------------|----------------------17-17-------| 
|----------------------------|--------------10---12-------19-17-| 
|-------23-24-23-------------|-----------19-14------------------| 
|-24-------------24-------23-|-(23)---23-21---------------------| 
|-------------------24-24----|----------------------------------| 
|----------------------------|----------------------------------| 
 
 
   H     +S   S  S  S S  S  S  S 
|--------------------------------| 
|-17----(17)-------22---22-------| 
|--------------------------------| 
|------------19-21---------24-23-| 
|--------------------------------| 
|--------------------------------| 
 
 
   Q.    S  S  E.  S  +S   E.    H     E  E  +Q 
|-----------------------------|-------------------| 
|-----------------------------|-------------------| 
|----------18-----------------|-------------------| 
|-23----21-21-19--17-(17)-16--|-16----18-18-(18)--| 
|-----------------------------|-------------------| 
|-----------------------------|-------------------| 
 
 
   Q  Q   E.  S  +S   E  S    H     +Q.    S  S 
|--------------------------|---------------------| 
|--------------------------|---------------------| 
|--------------------------|---------------------| 
|-16-----14--12-(12)-11-12-|-11----(11)---11-11--| 
|-19-----------------------|---------------------| 
|--------------------------|---------------------| 
 
 
 3/4                     4/4 
   S  S  E  S  E.  +Q      Q   Q   Q   Q     Q.    S  S  Q  Q    Q  Q   Q   Q 
|-----------------------|---------14------|-15----15-17-15-----|-------12------| 
|-----------------------|-------------15--|----------20-19-----|----5------14--| 
|-----------------------|-----11----------|--------------------|---------------| 
|-----------------------|-----------------|--------------------|---------------| 
|-12----12-12-----------|-----------------|--------------------|-4-------------| 
|----14-------12--(12)--|-10--------------|--------------------|---------------| 
 
 
   Q.    S  S  Q  Q     Q   Q   Q   Q     Q.    S  S  Q  Q     Q   Q   Q   Q 
|-14----14-15-14-----|-----14--17------|-17----17-19--------|---------15------| 
|----------19-17-----|-------------19--|----------22-20-----|-----17------17--| 
|--------------------|-----------------|-------------23-----|-----------------| 
|--------------------|-16--------------|--------------------|-----------------| 
|--------------------|-----------------|--------------------|-19--------------| 
|--------------------|-----------------|--------------------|-----------------| 
 
 
   Q.    S  S  S S  E  +Q     W          W          W 
|-15----15-17------20-(20)--|----------|----------|------| 
|----------20-19------------|----------|----------|------| 
|-------------21------------|----------|----------|------| 
|---------------------------|----------|----------|------| 
|---------------------------|----------|----------|------| 
|---------------------------|----------|----------|------| 
 
 
  W          W          W          W 
|----------|----------|----------|------| 
|----------|----------|----------|------| 
|----------|----------|----------|------| 
|----------|----------|----------|------| 
|----------|----------|----------|------| 
|----------|----------|----------|------| 
 
 
  W          W           S S S S S S S S S  S S S S S S S 
|----------|----------|------------8-7----------------6----| 
|----------|----------|--------4-5-----8-9----8---7-----8--| 
|----------|----------|----0-1-------------10---9---8------| 
|----------|----------|------------------------------------| 
|----------|----------|------------------------------------| 
|----------|----------|-20---------------------------------| 
 
 
  S  S S S S S  S  S  S  S  S  S  S  S  S  S 
|----------8---------------------------------| 
|------8-9--------12-------------------------| 
|-8----------9-10----------------------------| 
|---10---------------13-------13----11-10----| 
|-----------------------15-------11-------11-| 
|--------------------------15----------------| 
 
 
   S  S  S  S  S  S  S  S  S  S  S  S  S  S S S 
|-----------------------------------------------| 
|-----------------------------------------------| 
|-----------------------------------------------| 
|-------13-11-10-------13----11-10--------------| 
|----11----------11-------11-------11-------4-3-| 
|-13----------------13----------------13-14-----| 
 
 
  S S S S S S S  S  S  S  S S S  S  S  S   S S S S S S S S S S S S S S S S 
|---2-1---8-9----------------------------|---------------------------------| 
|-1-----0-------11-12----10-9-8----------|---7-6---------6-5---4---6-------| 
|-------------9--------------------------|-------------5-----5---4---------| 
|---------------------12--------10-------|-9-----6-5-4---------------------| 
|----------------------------------11-10-|---------------------------7-6---| 
|----------------------------------------|-------------------------------7-| 
 
 
  S S S S S S S S  S S S S  S  S  S S   S  S S S S S S S S S S S S S S S 
|-------------------------------------|----------------------------------| 
|-------------------------------------|----------------------------------| 
|--------------------9---9-10-11-10-8-|-9-10-9-7-8-7-----8-9-8-7-------9-| 
|---------8-9----------9--------------|--------------9-8---------9-8-9---| 
|---7---------7-9-10------------------|----------------------------------| 
|-6---8-6-----------------------------|----------------------------------| 
 
 
 3/4                             4/4 
  S S  S  S  S  S  S  S  S  S E   W 
|-----10-11-17-16-15-14----14---|----------| 
|-7-8-------------------14------|----------| 
|-------------------------------|----------| 
|-------------------------------|----------| 
|-------------------------------|----------| 
|-------------------------------|----------| 
 
 
  H    Q  E S  S    E.  S  Q   +Q.    S  S 
|----------------|-14--16-17--(17)-----------| 
|-------------14-|---------------------------| 
|----------------|-------------------18-18---| 
|----------------|---------------------------| 
|----------------|---------------------------| 
|----------------|---------------------------| 
 
 
   S  S S  S  Q   +Q.    S  S    S  S S  S  Q   +Q.    S  S 
|-19-17---16-16--(16)---------|-17-16---14-14--(14)---------| 
|-----------------------14-14-|-----------------------14-14-| 
|-----------------------------|-----------------------------| 
|-----------------------------|-----------------------------| 
|-----------------------------|-----------------------------| 
|-----------------------------|-----------------------------| 
 
 
   S  S  S  S  +S   S  S  S  E  S  S  S  S  E 
|-21-21-21-------------------------------------| 
|----------22-(22)-24-24-24-21-22-22-22----21--| 
|---------------------------------------23-----| 
|----------------------------------------------| 
|----------------------------------------------| 
|----------------------------------------------| 
 
 
   E.  S  Q   +Q.    S  S    S  S S  S  Q   +Q.    S  S 
|-------------------------|-----------------------------| 
|-----20-21--(21)---------|-23-21---20-20--(20)---------| 
|-22----------------------|-----------------------------| 
|-------------------22-22-|-----------------------22-22-| 
|-------------------------|-----------------------------| 
|-------------------------|-----------------------------| 
 
 
   S  S S  S  Q   +Q.    S  S 
|-----------------------------| 
|-21-20---18-18--(18)---------| 
|-----------------------17-17-| 
|-----------------------------| 
|-----------------------------| 
|-----------------------------| 
 
 
   S  S  S  S  +S   S  S  S  E  S  S  S  S  E 
|-20-20-20------------------------------------| 
|----------21-(21)-23-23-23----21-21-21----20-| 
|---------------------------24----------22----| 
|---------------------------------------------| 
|---------------------------------------------| 
|---------------------------------------------| 
 
 
   E  S  S  S S  S S  S  E.  +E.  S    +E   S  S  S S  S S  S  E.  +Q 
|-----------------------------------|------------------------------------| 
|-----------------------------------|------------------------------------| 
|-20----20-----------------------20-|-(20)----20-------------------------| 
|----22-22-20---18---20-22--(22)----|------22-22-20---18---20------------| 
|-----------------------------------|-------------------------18--(18)---| 
|-----------------------------------|------------------------------------| 
 
 
   E  S  S  S  S S  S  E.  S  S  S S  S 
|-16----16------------------------------| 
|----18-18-16---------------------------| 
|-------------17---15-15-----13---------| 
|-------------------------15----15---13-| 
|---------------------------------------| 
|---------------------------------------| 
 
 
   E.  S  S  S S  S  E  S  S  Q    W 
|--------------------------------|------| 
|--------------------------------|------| 
|--------------------------------|------| 
|-13-----13----------------------|------| 
|-----15----15---13-13-13-11-11--|------| 
|----------------------16-15-----|------| 
 
 
  H    Q  E S S    E.  S  Q   +Q.    S  S    S  S S  S  Q   +Q.    S  S 
|-------------9-|-14--16-17--(17)---------|-19-17---16-16--(16)----------| 
|---------------|-------------------------|-----------------------14-14--| 
|---------------|-------------------18-18-|------------------------------| 
|---------------|-------------------------|------------------------------| 
|---------------|-------------------------|------------------------------| 
|---------------|-------------------------|------------------------------| 
 
 
   S  S S  S  Q   +Q.    S  S 
|-17-16---14-14--(14)---------| 
|-----------------------14-14-| 
|-----------------------------| 
|-----------------------------| 
|-----------------------------| 
|-----------------------------| 
 
 
   S  S  S  S  +S   S  S  S  E  S  S  S  S  E    E.  S  Q   +Q.    S  S 
|-21-21-21------------------------------------|--------------------------| 
|----------22-(22)-24-24-24-21-22-22-22----21-|-----20-21--(21)----------| 
|---------------------------------------23----|-22-----------------------| 
|---------------------------------------------|-------------------22-22--| 
|---------------------------------------------|--------------------------| 
|---------------------------------------------|--------------------------| 
 
 
   S  S S  S  Q   +Q.    S  S    S  S S  S  Q   +Q.    S  S 
|-----------------------------|-----------------------------| 
|-23-21---20-20--(20)---------|-21-20---18-18--(18)---------| 
|-----------------------------|-----------------------17-17-| 
|-----------------------22-22-|-----------------------------| 
|-----------------------------|-----------------------------| 
|-----------------------------|-----------------------------| 
 
 
   S  S  S  S  +S   S  S  S  E  S  S  S  S  E 
|-20-20-20-------------------------------------| 
|----------21-(21)-23-23-23----21-21-21----20--| 
|---------------------------24----------22-----| 
|----------------------------------------------| 
|----------------------------------------------| 
|----------------------------------------------| 
 
 
   E  S  S  S S  S S  S  E.  +E.  S    +E   S  S  S S  S S  S  E.  +Q 
|-----------------------------------|-----------------------------------| 
|-----------------------------------|-----------------------------------| 
|-20----20-----------------------20-|-(20)----20------------------------| 
|----22-22-20---18---20-22--(22)----|------22-22-20---18---20-----------| 
|-----------------------------------|-------------------------18--(18)--| 
|-----------------------------------|-----------------------------------| 
 
 
   E  S  S  S  S S  S  E.  S  S  S S  S 
|-16----16------------------------------| 
|----18-18-16---------------------------| 
|-------------17---15-15-----13---------| 
|-------------------------15----15---13-| 
|---------------------------------------| 
|---------------------------------------| 
 
 
   S  S  S  S  S  S  S  S  S  S  S  S  S  S S S 
|----19----19-----------------------------------| 
|-15-19-19-19-19-19-------19----19----19----3---| 
|-------19----19----19-19-19-19-19-19-19----4---| 
|----------------------21----21----21----21-----| 
|----------------------------------------21-----| 
|-----------------------------------------------| 
 
 
  Q=196 
   S  S  S  S  S  S  S  S  S  S  S  S  S  S  S  S 
|-16----------------16----------------------------| 
|----16----------16----16----------------------16-| 
|-------16----16----------16----------------16----| 
|----------18----------------18----------18-------| 
|-------------------------------18----18----------| 
|----------------------------------19-------------| 
 
 
   S  S  S  S  S  S  S  S  S  S  S  S  S  S  S  S 
|-16----------------16----------------------------| 
|----16----------16----16----------------------16-| 
|-------16----16----------16----------------16----| 
|----------18----------------18----------18-------| 
|-------------------------------18----18----------| 
|----------------------------------19-------------| 
 
 
   S  S  S  S  S  S  S  S  S  S  S  S  S  S  S  S 
|-16----------------16----------------------------| 
|----16----------16----16----------------------16-| 
|-------16----16----------16----------------16----| 
|----------18----------------18----------18-------| 
|-------------------------------18----18----------| 
|----------------------------------19-------------| 
 
 
   S  S  S  S  S  S  S  S  S  S  S  S  S  S  S  S 
|-16----------------16----------------------------| 
|----16----------16----16----------------------16-| 
|-------16----16----------16----------------16----| 
|----------18----------------18----------18-------| 
|-------------------------------18----18----------| 
|----------------------------------19-------------| 
 
 
   S  S  S  S  S  S  S  S  S  S  S S S S S S 
|----------------------------------------4-7-| 
|-17----------------17-----------------5-----| 
|----16----------16----16------------4-------| 
|-------18----18----------18-------2---------| 
|----------19----------------19--------------| 
|-------------------------------19-----------| 
 
 
   S  S  S  S  S  S  S  S  S  S  S  S  S  S  S  S 
|-12----------------12----------------------------| 
|----12----------12----12----------------------12-| 
|-------13----13----------13----------------13----| 
|----------14----------------14----------14-------| 
|-------------------------------14----14----------| 
|----------------------------------12-------------| 
 
 
   S  S  S  S  S  S  S  S  S  S  S  S  S  S  S  S 
|-12----------------12----------------------------| 
|----12----------12----12----------------------12-| 
|-------13----13----------13----------------13----| 
|----------14----------------14----------14-------| 
|-------------------------------14----14----------| 
|----------------------------------12-------------| 
 
 
   S  S  S  S  S  S  S  S  S  S  S  S  S  S  S  S 
|-12----------------12----------------------------| 
|----12----------12----12----------------------12-| 
|-------13----13----------13----------------13----| 
|----------14----------------14----------14-------| 
|-------------------------------14----14----------| 
|----------------------------------12-------------| 
 
 
   S  S  S  S  S  S  S  S  S  S  S  S  S  S  S  S 
|-16----------------16----------------------------| 
|----16----------16----16----------------------16-| 
|-------16----16----------16----------------16----| 
|----------18----------------18----------18-------| 
|-------------------------------18----18----------| 
|----------------------------------19-------------| 
 
 
   S  S  S  S  S  S  S  S  S  S  S  S  S  S  S  S 
|-16----------------16----------------------------| 
|----16----------16----16----------------------16-| 
|-------16----16----------16----------------16----| 
|----------18----------------18----------18-------| 
|-------------------------------18----18----------| 
|----------------------------------19-------------| 
 
 
   S  S  S  S  S  S  S  S  S  S  S  S  S  S  S  S 
|-16----------------16----------------------------| 
|----16----------16----16----------------------16-| 
|-------16----16----------16----------------16----| 
|----------18----------------18----------18-------| 
|-------------------------------18----18----------| 
|----------------------------------19-------------| 
 
 
   S  S  S  S  S  S  S  S  S  S  S  S  S  S  S  S 
|-16----------------16----------------------------| 
|----16----------16----16----------------------16-| 
|-------16----16----------16----------------16----| 
|----------18----------------18----------18-------| 
|-------------------------------18----18----------| 
|----------------------------------19-------------| 
 
 
   S  S  S  S  S  S  S  S  S  S  S S S S S S 
|----------------------------------------4-7-| 
|-17----------------17-----------------5-----| 
|----16----------16----16------------4-------| 
|-------18----18----------18-------2---------| 
|----------19----------------19--------------| 
|-------------------------------19-----------| 
 
 
   S  S  S  S  S  S  S  S  S  S  S  S  S  S  S  S 
|-12----------------12----------------------------| 
|----12----------12----12----------------------12-| 
|-------13----13----------13----------------13----| 
|----------14----------------14----------14-------| 
|-------------------------------14----14----------| 
|----------------------------------12-------------| 
 
 
   S  S  S  S  S  S  S  S  S  S  S  S  S  S  S  S 
|-12----------------12----------------------------| 
|----12----------12----12----------------------12-| 
|-------13----13----------13----------------13----| 
|----------14----------------14----------14-------| 
|-------------------------------14----14----------| 
|----------------------------------12-------------| 
 
 
   S  S  S  S  S  S  S  S  S  S  S  S  S  S  S  S 
|-12----------------12----------------------------| 
|----12----------12----12----------------------12-| 
|-------13----13----------13----------------13----| 
|----------14----------------14----------14-------| 
|-------------------------------14----14----------| 
|----------------------------------12-------------| 
 
 
   S  S  S  S  S  S  S  S  S  S  S S S S  S  S 
|-20----------------20-------------1-5-8-13-17-| 
|----22----------22----22----------------------| 
|-------22----22----------22-------------------| 
|----------22----------------22----------------| 
|-------------------------------24-------------| 
|----------------------------------------------| 
 
 
   S  S  S  S  S  S  S  S  S  S  S S S S  S  S 
|-20----------------20-------------1-5-8-13-17-| 
|----22----------22----22----------------------| 
|-------22----22----------22-------------------| 
|----------22----------------22----------------| 
|-------------------------------24-------------| 
|----------------------------------------------| 
 
 
   S  S  S  S  S  S  S  S  S  S  S S S S  S  S 
|-20----------------20-------------1-5-8-13-17-| 
|----22----------22----22----------------------| 
|-------22----22----------22-------------------| 
|----------22----------------22----------------| 
|-------------------------------24-------------| 
|----------------------------------------------| 
 
 
   S  S  S  S  S  S  S  S  S  S  S S S S  S  S 
|-20----------------20-------------1-5-8-13-17-| 
|----22----------22----22----------------------| 
|-------22----22----------22-------------------| 
|----------22----------------22----------------| 
|-------------------------------24-------------| 
|----------------------------------------------| 
 
 
   S  S  S  S  S  S  S  S  S  S  S  S  S  S  S  S 
|-16----------------16----------------------------| 
|----18----------18----18----------------------18-| 
|-------18----18----------18----------------18----| 
|----------18----------------18----------18-------| 
|-------------------------------20----20----------| 
|----------------------------------21-------------| 
 
 
   S  S  S  S  S  S  S  S  S  S  S  S  S  S  S  S 
|-16----------------16----------------------------| 
|----18----------18----18----------------------18-| 
|-------18----18----------18----------------18----| 
|----------18----------------18----------18-------| 
|-------------------------------20----20----------| 
|----------------------------------21-------------| 
 
 
   S  S  S  S  S  S  S  S  S  S  S  S  S  S  S  S 
|-16----------------16----------------------------| 
|----18----------18----18----------------------18-| 
|-------18----18----------18----------------18----| 
|----------18----------------18----------18-------| 
|-------------------------------20----20----------| 
|----------------------------------21-------------| 
 
 
   S  S  S  S  S  S  S  S  S  S  S  S  S  S  S  S 
|-16----------------16----------------------------| 
|----18----------18----18----------------------18-| 
|-------18----18----------18----------------18----| 
|----------18----------------18----------18-------| 
|-------------------------------20----20----------| 
|----------------------------------21-------------| 
 
 
   S  S  S  S  S  S  S  S  S  S  S S S S  S  S 
|-20----------------20-------------1-5-8-13-17-| 
|----22----------22----22----------------------| 
|-------22----22----------22-------------------| 
|----------22----------------22----------------| 
|-------------------------------24-------------| 
|----------------------------------------------| 
 
 
   S  S  S  S  S  S  S  S  S  S  S S S S  S  S 
|-20----------------20-------------1-5-8-13-17-| 
|----22----------22----22----------------------| 
|-------22----22----------22-------------------| 
|----------22----------------22----------------| 
|-------------------------------24-------------| 
|----------------------------------------------| 
 
 
   S  S  S  S  S  S  S  S  S  S  S S S S  S  S 
|-20----------------20-------------1-5-8-13-17-| 
|----22----------22----22----------------------| 
|-------22----22----------22-------------------| 
|----------22----------------22----------------| 
|-------------------------------24-------------| 
|----------------------------------------------| 
 
 
   S  S  S  S  S  S  S  S  S  S  S S S S  S  S 
|-20----------------20-------------1-5-8-13-17-| 
|----22----------22----22----------------------| 
|-------22----22----------22-------------------| 
|----------22----------------22----------------| 
|-------------------------------24-------------| 
|----------------------------------------------| 
 
 
   S  S  S  S  S  S  S  S  S  S  S  S  S  S  S  S 
|-16----------------16----------------------------| 
|----18----------18----18----------------------18-| 
|-------18----18----------18----------------18----| 
|----------18----------------18----------18-------| 
|-------------------------------20----20----------| 
|----------------------------------21-------------| 
 
 
   S  S  S  S  S  S  S  S  S  S  S  S  S  S  S  S 
|-16----------------16----------------------------| 
|----18----------18----18----------------------18-| 
|-------18----18----------18----------------18----| 
|----------18----------------18----------18-------| 
|-------------------------------20----20----------| 
|----------------------------------21-------------| 
 
 
   S  S  S  S  S  S  S  S  S  S  S  S  S  S  S  S 
|-16----------------16----------------------------| 
|----18----------18----18----------------------18-| 
|-------18----18----------18----------------18----| 
|----------18----------------18----------18-------| 
|-------------------------------20----20----------| 
|----------------------------------21-------------| 
 
 
   S  S  S  S  S  S  S  S  S  S  S  S  S  S  S  S 
|-16----------------16----------------------------| 
|----18----------18----18----------------------18-| 
|-------18----18----------18----------------18----| 
|----------18----------------18----------18-------| 
|-------------------------------20----20----------| 
|----------------------------------21-------------| 
 
 
   S  S  S  S  S  S  S  S  S  S  S  S  S  S  S  S 
|-18----------------18----------------------------| 
|----18----------18----18----------------------18-| 
|-------18----18----------18----------------18----| 
|----------20----------------20----------20-------| 
|-------------------------------20----20----------| 
|----------------------------------21-------------| 
 
 
   S  S  S  S  S  S  S  S  S  S  S  S  S  S  S  S 
|-18----------------18----------------------------| 
|----18----------18----18-------------------------| 
|-------18----18----------18----------------18-19-| 
|----------20----------------20----------20-------| 
|-------------------------------20----20----------| 
|----------------------------------21-------------| 
 
 
   S  S  S  S  S  S  S  S  S S S S S S S  S 
|------------------------------------1-6-10-| 
|----------------------------------3--------| 
|----------------19----------3---3----------| 
|-20----------20----20---------3------------| 
|----20----20----------20-------------------| 
|-------22----------------22----------------| 
 
 
   S  S  S  S  S  S  S  S  S  S  S  S  S  S  S  S 
|----------------10----------------------------10-| 
|-11----------11----11----------------------11----| 
|----10----10----------10----------------10-------| 
|-------12----------------12----------12----------| 
|----------------------------13----13-------------| 
|-------------------------------13----------------| 
 
 
   S  S  S  S  S  S  S  S  S  S  S  S  S  S  S  S 
|-18----------------18----------------------------| 
|----19----------19----19----------------------19-| 
|-------20----20----------20----------------20----| 
|----------20----------------20----------20-------| 
|-------------------------------21----21----------| 
|----------------------------------23-------------| 
 
 
   S  S  S  S  S  S  S  S  S  S  S  S  S  S  S  S 
|-18----------------18----------------------------| 
|----19----------19----19----------------------19-| 
|-------20----20----------20----------------20----| 
|----------20----------------20----------20-------| 
|-------------------------------21----21----------| 
|----------------------------------23-------------| 
 
 
   S  S  S  S  S  S  S  S  S  S  S  S  S  S  S  S 
|-18----------------18----------------------------| 
|----19----------19----19----------------------19-| 
|-------20----20----------20----------------20----| 
|----------20----------------20----------20-------| 
|-------------------------------21----21----------| 
|----------------------------------23-------------| 
 
 
   S  S  S  S  S  S  S  S  S  S  S  S  S  S  S  S 
|-18----------------18----------------------------| 
|----19----------19----19----------------------19-| 
|-------20----20----------20----------------20----| 
|----------20----------------20----------20-------| 
|-------------------------------21----21----------| 
|----------------------------------23-------------| 
 
 
   S  S  S  S  S S S S S S S S S S S S 
|-18-16-14-13-11-9-8-6-4-2-1-----------| 
|----------------------------4-2-1-----| 
|----------------------------------3-1-| 
|--------------------------------------| 
|--------------------------------------| 
|--------------------------------------| 
 
 
  Q=98 
  W          H    Q  E S S    E.  S  Q   +Q.    S  S 
|----------|-------------9-|-14--16-17--(17)---------| 
|----------|---------------|-------------------------| 
|----------|---------------|-------------------18-18-| 
|----------|---------------|-------------------------| 
|----------|---------------|-------------------------| 
|----------|---------------|-------------------------| 
 
 
   Q   +S   S  S  S  +Q.    S  S 
|-19--(19)-17-16-16-(16)----------| 
|--------------------------14-14--| 
|---------------------------------| 
|---------------------------------| 
|---------------------------------| 
|---------------------------------| 
 
 
   S  S S  S  Q   +Q.    S  S 
|-17-16---14-14--(14)---------| 
|-----------------------14-14-| 
|-----------------------------| 
|-----------------------------| 
|-----------------------------| 
|-----------------------------| 
 
 
   S  S  S  S  +S   S  S  S  E  S  S  S  S  E    E.  S  Q   +Q.    S  S 
|-21-21-21------------------------------------|--------------------------| 
|----------22-(22)-24-24-24-21-22-22-22----21-|-----20-21--(21)----------| 
|---------------------------------------23----|-22-----------------------| 
|---------------------------------------------|-------------------22-22--| 
|---------------------------------------------|--------------------------| 
|---------------------------------------------|--------------------------| 
 
 
   S  S S  S  Q   +Q.    S  S    S  S S  S  Q   +Q.    S  S 
|-----------------------------|-----------------------------| 
|-23-21---20-20--(20)---------|-21-20---18-18--(18)---------| 
|-----------------------------|-----------------------17-17-| 
|-----------------------22-22-|-----------------------------| 
|-----------------------------|-----------------------------| 
|-----------------------------|-----------------------------| 
 
 
   S  S  S  S  +S   S  S  S  E  S  S  S  S  E 
|-20-20-20-------------------------------------| 
|----------21-(21)-23-23-23----21-21-21----20--| 
|---------------------------24----------22-----| 
|----------------------------------------------| 
|----------------------------------------------| 
|----------------------------------------------| 
 
 
   E  S  S  S S  S S  S  E.  +E.  S    +E   S  S  S S  S S  S  E.  +Q 
|-----------------------------------|-----------------------------------| 
|-----------------------------------|-----------------------------------| 
|-20----20-----------------------20-|-(20)----20------------------------| 
|----22-22-20---18---20-22--(22)----|------22-22-20---18---20-----------| 
|-----------------------------------|-------------------------18--(18)--| 
|-----------------------------------|-----------------------------------| 
 
 
   E  S  S  S  S S  S  E.  S  S  S S  S 
|-16----16------------------------------| 
|----18-18-16---------------------------| 
|-------------17---15-15-----13---------| 
|-------------------------15----15---13-| 
|---------------------------------------| 
|---------------------------------------| 
 
 
   E.  S  S  S S  S  E  S  S  Q    W 
|--------------------------------|----------| 
|--------------------------------|----------| 
|--------------------------------|----------| 
|-13-----13----------------------|----------| 
|-----15----15---13-13-13-11-11--|----------| 
|----------------------16-15-----|----------| 
 
 
  H    Q  E S S    E.  S  Q   +Q.    S  S 
|-------------9-|-14--16-17--(17)----------| 
|---------------|--------------------------| 
|---------------|-------------------18-18--| 
|---------------|--------------------------| 
|---------------|--------------------------| 
|---------------|--------------------------| 
 
 
   S  S S  S  Q   +Q.    S  S    S  S S  S  Q   +Q.    S  S 
|-19-17---16-16--(16)---------|-17-16---14-14--(14)---------| 
|-----------------------14-14-|-----------------------14-14-| 
|-----------------------------|-----------------------------| 
|-----------------------------|-----------------------------| 
|-----------------------------|-----------------------------| 
|-----------------------------|-----------------------------| 
 
 
   S  S  S  S  +S   S  S  S  E  S  S  S  S  E 
|-21-21-21-------------------------------------| 
|----------22-(22)-24-24-24-21-22-22-22----21--| 
|---------------------------------------23-----| 
|----------------------------------------------| 
|----------------------------------------------| 
|----------------------------------------------| 
 
 
   E.  S  Q   +Q.    S  S    S  S S  S  Q   +Q.    S  S 
|-------------------------|-----------------------------| 
|-----20-21--(21)---------|-23-21---20-20--(20)---------| 
|-22----------------------|-----------------------------| 
|-------------------22-22-|-----------------------22-22-| 
|-------------------------|-----------------------------| 
|-------------------------|-----------------------------| 
 
 
   S  S S  S  Q   +Q.    S  S 
|-----------------------------| 
|-21-20---18-18--(18)---------| 
|-----------------------17-17-| 
|-----------------------------| 
|-----------------------------| 
|-----------------------------| 
 
 
   Q.    S  S  H       E  S  S  S S  S S  S  E.  +E.  S 
|-20----18-16-20----|-----------------------------------| 
|-------------------|-----------------------------------| 
|-------------------|-20----20-----------------------20-| 
|-------------------|----22-22-20---18---20-22--(22)----| 
|-------------------|-----------------------------------| 
|-------------------|-----------------------------------| 
 
 
   +E   S  S  S S  S S  S  E.  +Q 
|-----------------------------------| 
|-----------------------------------| 
|-(20)----20------------------------| 
|------22-22-20---18---20-----------| 
|-------------------------18--(18)--| 
|-----------------------------------| 
 
 
   E  S  S  E  E  S  S  S  S  S  S  S  S 
|-------------13-18-16-18-16-------16-20-| 
|-------13----------18-21-18-18-16-18-23-| 
|-17-15-15-13----------------20-17-------| 
|----------------------------------------| 
|----------------------------------------| 
|----------------------------------------| 
 
 
   S  S  S  S  S  S  S  S  S  S  S  S  S  S  S S 
|-18-16-------------------11---------------------| 
|-21-18-18-16-11----11-13-13-11----11----------6-| 
|-------20-17-15-12-12-15----15-12-12-12-10--8-8-| 
|----------------15-------------15----15-13-10---| 
|------------------------------------------------| 
|------------------------------------------------| 
 
 
  S S E Q  H 
|---------------*| 
|---------------*| 
|-5-------------*| 
|---------------*| 
|---------------*| 
|---------------*| 
 
 
 
 

roll up this ad to continue

share this page

See Also: