E-Chords
Jason Becker

Elevenblue egyptian(Tabs)

Jason Becker

Key: E
  W        W          W          W 
|--------|----------|----------|------| 
|--------|----------|----------|------| 
|--------|----------|----------|------| 
|--------|----------|----------|------| 
|--------|----------|----------|------| 
|--------|----------|----------|------| 
 
 
 5/4          4/4 
  W            W          W          W 
|------------|----------|----------|------| 
|------------|----------|----------|------| 
|------------|----------|----------|------| 
|------------|----------|----------|------| 
|------------|----------|----------|------| 
|------------|----------|----------|------| 
 
 
               Q=100 
 5/4          4/4 
  W            Q.   E Q  Q    Q  Q  E E E E   Q.   E Q  Q 
|------------|--------4--5--|-6--5--4-------|--------------| 
|------------|-5----6-------|---------6-5-3-|-5----3-2-----| 
|------------|--------------|---------------|-----------2--| 
|------------|--------------|---------------|--------------| 
|------------|--------------|---------------|--------------| 
|------------|--------------|---------------|--------------| 
 
 
 5/4               4/4 
  +H     Q  Q  Q    Q.   E Q  Q    Q  Q  E E E E   Q.   E Q  Q 
|-----------------|--------4--5--|-6--5--4-------|--------------| 
|-----------------|-5----6-------|---------6-5-3-|-5----3-2-----| 
|-(2)-------------|--------------|---------------|-----------2--| 
|-----------------|--------------|---------------|--------------| 
|-----------------|--------------|---------------|--------------| 
|-----------------|--------------|---------------|--------------| 
 
 
 5/4               4/4 
  +H     Q  Q  Q    H    +E  S S  S  S  S  S    H.      E S S 
|-----------------|-7----(7)-5-7-10-12-------|----------8-7-5--| 
|-----------------|-----------------15-12-10-|-10--------------| 
|-(2)-------------|--------------------------|-----------------| 
|-----------------|--------------------------|-----------------| 
|-----------------|--------------------------|-----------------| 
|-----------------|--------------------------|-----------------| 
 
 
  H    +E  S S S S  S  S    H     S  S  S  S  S  S  S  S 
|-7----(7)-----4-7-10-13-|-12----12-13-------------------| 
|------------6-----------|----------17-15-17----15-------| 
|----------7-------------|----------------19-17-17-16-17-| 
|------------------------|----------------------------21-| 
|------------------------|-------------------------------| 
|------------------------|-------------------------------| 
 
 
   H     +E   S  S  S  S  S  S 
|------------------10-12--------| 
|---------------12----15-12-10--| 
|-16----(16)-14-----------------| 
|-------------------------------| 
|-------------------------------| 
|-------------------------------| 
 
 
   H.      E S S   H    +E  S S S S  S  S    H     S  S  S  S  S  S  S  S 
|----------8-7-5-|-7----(7)-----4-7-10-13-|-12----12-13--------------------| 
|-10-------------|------------6-----------|----------17-15-17----15--------| 
|----------------|----------7-------------|----------------19-17-17-16-17--| 
|----------------|------------------------|----------------------------21--| 
|----------------|------------------------|--------------------------------| 
|----------------|------------------------|--------------------------------| 
 
 
   E  S  S E  E  +Q.    S  S 
|----------------------------| 
|----------------------------| 
|----------------------------| 
|-------15-------------------| 
|-19---------17-(17)---17-15-| 
|----15----------------------| 
 
 
   E S  S E  E  +Q    S  S  S  S    E S  S E E +Q.   S S 
|--------------------------------|-----------------------| 
|--------------------------------|-----------1-(1)---1-0-| 
|--------------------------------|-----------------------| 
|-14---15---17-(17)--15-17-------|-----------------------| 
|-----------------------20-19-20-|-----------------------| 
|--------------------------------|-22---24---------------| 
 
 
  E S S E E +H       E S S E E +Q.   S S   E S S E E +Q   S  S S  S 
|------------------|---------------------|--------------------------| 
|-3---5---6-(6)----|-5---6---------------|-5---6---8-(8)--6--8------| 
|------------------|---------7-(7)---7-5-|------------------10-9-10-| 
|------------------|---5-----------------|--------------------------| 
|------------------|---------------------|--------------------------| 
|------------------|---------------------|--------------------------| 
 
 
   E S  S E  E  +Q.    S  S    E S  S E  E  +H        E S  S E S S  Q.    S S 
|---------------------------|----------------------|--------------------------| 
|---------------------------|----------------------|------------------------1-| 
|---------------------------|----------------------|------------------------4-| 
|-12---14-------------------|-12---14---15-(15)----|-14---15---0-0------------| 
|-----------15-(15)---15-14-|----------------------|---------------17---------| 
|---------------------------|----------------------|---------------------19---| 
 
 
  E S S E S S H      S S S S S S S S S S S S S S S S 
|------------------|---------0-----------1-5-3-0------| 
|------------------|-----0-3-3-1-----0-3-5-8-6-3-1-3--| 
|-2---1-------2----|---0-2-5---4-2-0-2-5---------4-5--| 
|-----------0------|-2-3---------5-3------------------| 
|---------0--------|----------------------------------| 
|------------------|----------------------------------| 
 
 
  S S  S  S  S S  S  S  S  S S  S  S  S  E    +H      +H       W 
|-1-5--8-12-15---------13-17---------15-19-|-(19)----(19)----|------| 
|-5-8-12-15-18------15-17-20------17-18-22-|-(22)----(22)----|------| 
|----------------16-17---------17-19-------|-----------------|------| 
|------------------------------------------|-----------------|------| 
|------------------------------------------|-----------------|------| 
|------------------------------------------|-----------------|------| 
 
 
 11/8 
   S  S  S  S  S  S  S  S  S  S  S  S  S  S  S  S  S  S  S  S  S  S 
|-------16-14-17-21----------------------16-14-17-21----------------| 
|----17-------------21-22-21-19-17----17-------------21-22-21-19-17-| 
|-18-------------------------------18-------------------------------| 
|-------------------------------------------------------------------| 
|-------------------------------------------------------------------| 
|-------------------------------------------------------------------| 
 
 
   S  S  S  S  S  S  S  S  S  S  S  S  S  S  S  S  S  S  S  S  S  S 
|-------15-13-16-20----------------------15-13-16-20----------------| 
|----16-------------20-21-20-18-16----16-------------20-21-20-18-16-| 
|-17-------------------------------17-------------------------------| 
|-------------------------------------------------------------------| 
|-------------------------------------------------------------------| 
|-------------------------------------------------------------------| 
 
 
   S  S  S  S  S  S  S  S  S  S  S  S  S  S  S  S  S  S  S  S  S  S 
|-------14-12-15-19----------------------14-12-15-19----------------| 
|----15-------------19-20-19-17-15----15-------------19-20-19-17-15-| 
|-16-------------------------------16-------------------------------| 
|-------------------------------------------------------------------| 
|-------------------------------------------------------------------| 
|-------------------------------------------------------------------| 
 
 
   S  S  S  S  S  S  S  S  S  S  S  S  S  S  S  S  S  S  S  S  S  S 
|----12-16-14-17-21----------------------16-14-17-21----------------| 
|-14----------------21-22-21-19-17----17-------------21-22-21-19-17-| 
|----------------------------------18-------------------------------| 
|-------------------------------------------------------------------| 
|-------------------------------------------------------------------| 
|-------------------------------------------------------------------| 
 
 
   S  S  S  S  S  S  S  S  S  S  S  S  S  S  S  S  S  S  S  S  S  S 
|-------15-13-16-20----------------------15-13-16-20----------------| 
|----16-------------20-21-20-18-16----16-------------20-21-20-18-16-| 
|-17-------------------------------17-------------------------------| 
|-------------------------------------------------------------------| 
|-------------------------------------------------------------------| 
|-------------------------------------------------------------------| 
 
 
   S  S  S  S  S  S  S  S  S  S  S  S  S  S  S  S  S  S  S  S  S  S 
|-------14-12-15-19----------------------14-12-15-19----------------| 
|----15-------------19-20-19-17-15----15-------------19-20-19-17-15-| 
|-16-------------------------------16-------------------------------| 
|-------------------------------------------------------------------| 
|-------------------------------------------------------------------| 
|-------------------------------------------------------------------| 
 
 
 4/4 
   S  S  S  S  S  S  S  S  S  S  S  S  S  S  S  S 
|-17----18----------------------------------------| 
|----18-20-20-22----20----22----23-20-22----20----| 
|----19----21-22-22-21-21-22-22-24-21-22-22-21-21-| 
|----------------24----23----24----------24----23-| 
|-------------------------------------------------| 
|-------------------------------------------------| 
 
 
   S  S  S  S  S  S  S  S  S  S  S  S  S  S  S  S 
|-------------20-----------------------------------| 
|-22----23-20-22-22-23-20-22----20----22----20-----| 
|-22-22-24-21----22-24-21-22-22-21-21-22-22-21-21--| 
|----24----------------------24----23----24----23--| 
|--------------------------------------------------| 
|--------------------------------------------------| 
 
 
   S  S  S  S  S  S  S  S  S  S  S  S  S  S  S  S 
|-------------------------------------------------| 
|-22----23-20-22----20----22----23-20-22----20----| 
|-22-22-24-21-22-22-21-21-22-22-24-21-22-22-21-21-| 
|----24----------24----23----24----------24----23-| 
|-------------------------------------------------| 
|-------------------------------------------------| 
 
 
   S  S  S  S  S  S  S  S  S  S  S  S  S  S  S  S 
|-------------20----------------------------------| 
|-22----23-20-22-22-23-20-22----20----22----20----| 
|-22-22-24-21----22-24-21-22-22-21-21-22-22-21-21-| 
|----24----------------------24----23----24----23-| 
|-------------------------------------------------| 
|-------------------------------------------------| 
 
 
   S  S  S  S  S  S  S  S  S S  S S  S S  S S 
|-------------17------------------------------| 
|-18-------------18------------13--------13---| 
|-22-19----19----19-------11----0---11----0---| 
|----19----19-------19-----0---10----0---10---| 
|-------20-------------20--9---------9--------| 
|----------------------22---------------------| 
 
 
 6/4 
   S S  S S  S S  S S  S S E H. 
|-----------14---------------------| 
|------13----0---13----------------| 
|-11----0---11----0---11-----------| 
|--0---10--------10----0-----------| 
|--9-------------------9-----------| 
|----------------------------------| 
 
 
 11/8 
  S  S  S  S  S  S  S  S  S  S  S  S  S  S  S  S  S  S  S  S  S  S 
|-9-12-16-14-17-21----------------------16-14-17-21----------------| 
|------------------21-22-21-19-17----17-------------21-22-21-19-17-| 
|---------------------------------18-------------------------------| 
|------------------------------------------------------------------| 
|------------------------------------------------------------------| 
|------------------------------------------------------------------| 
 
 
   S  S  S  S  S  S  S  S  S  S  S  S  S  S  S  S  S  S  S  S  S  S 
|-------15-13-16-20----------------------15-13-16-20----------------| 
|----16-------------20-21-20-18-16----16-------------20-21-20-18-16-| 
|-17-------------------------------17-------------------------------| 
|-------------------------------------------------------------------| 
|-------------------------------------------------------------------| 
|-------------------------------------------------------------------| 
 
 
   S  S  S  S  S  S  S  S  S  S  S  S  S  S  S  S  S  S  S  S  S  S 
|-------14-12-15-19----------------------14-12-15-19----------------| 
|----15-------------19-20-19-17-15----15-------------19-20-19-17-15-| 
|-16-------------------------------16-------------------------------| 
|-------------------------------------------------------------------| 
|-------------------------------------------------------------------| 
|-------------------------------------------------------------------| 
 
 
   S  S  S  S  S  S  S  S  S  S  S  S  S  S  S  S  S  S  S  S  S  S 
|----12-16-14-17-21----------------------16-14-17-21----------------| 
|-14----------------21-22-21-19-17----17-------------21-22-21-19-17-| 
|----------------------------------18-------------------------------| 
|-------------------------------------------------------------------| 
|-------------------------------------------------------------------| 
|-------------------------------------------------------------------| 
 
 
   S  S  S  S  S  S  S  S  S  S  S  S  S  S  S  S  S  S  S  S  S  S 
|-------15-13-16-20----------------------15-13-16-20----------------| 
|----16-------------20-21-20-18-16----16-------------20-21-20-18-16-| 
|-17-------------------------------17-------------------------------| 
|-------------------------------------------------------------------| 
|-------------------------------------------------------------------| 
|-------------------------------------------------------------------| 
 
 
                                                                      Q=120 
                                                                     4/4 
   S  S  S  S  S  S  S  S  S  S  S  S  S  S  S  S  S  S  S  S  S  S   W 
|-------14-12-15-19----------------------14-12-15-19----------------|------| 
|----15-------------19-20-19-17-15----15-------------19-20-19-17-15-|------| 
|-16-------------------------------16-------------------------------|------| 
|-------------------------------------------------------------------|------| 
|-------------------------------------------------------------------|------| 
|-------------------------------------------------------------------|------| 
 
 
  Q=120      Q=120 
                         5/4 
  W          W            W            W 
|----------|------------|------------|------| 
|----------|------------|------------|------| 
|----------|------------|------------|------| 
|----------|------------|------------|------| 
|----------|------------|------------|------| 
|----------|------------|------------|------| 
 
 
 4/4 
   Q.    S  S  Q.    S  S    S  S S  S  E.  S  Q   S  S  S  S 
|-------------------------|-----------------------------------| 
|-------------------------|-----------------------------17-17-| 
|-14----------------------|-----------------------------------| 
|-------15-17-------------|-----------------------------------| 
|----------20-19----19-20-|-20-20---20-20--19-17--17-17-------| 
|-------------------------|-----------------------------------| 
 
 
   S  S  S  S  S  S  S  S  S  S  S  S  S  S  S  S 
|-------------13-12-------15-13-------17-15-------| 
|-18-17-15-15----15-13-12----17-15-13----18-17-15-| 
|-------17-------------14----------16----------17-| 
|-------------------------------------------------| 
|-------------------------------------------------| 
|-------------------------------------------------| 
 
 
 5/4 
   Q   S  S  S  S  S  S  S  S  S  S  S  S  S  S  E 
|-22--------------------------17-17----------------| 
|-----23-22-22-20----20-18-------17-17-------------| 
|-----------24----21----21-19-------17-17----------| 
|--------------------------------------19-19-------| 
|-----------------------------------------19----19-| 
|--------------------------------------------20----| 
 
 
 4/4 
   S  S  S  S  S  S  S  S  S  S  S  S  S  S  S  S 
|-------------------------------------------------| 
|----------17-------------17-------------17-------| 
|-------16-16----------16----16----------16-16----| 
|----17-------17-16-16-17----17-16-16-17-------17-| 
|-19-21----------19----------------19----------21-| 
|-------------------------------------------------| 
 
 
   S  S  S  S  S  S  S  S  S  S  S  S  S  S  S  S 
|--------------------------------------------------| 
|----------15-------------15-------------15--------| 
|-------14-14----------14----14----------14-14-----| 
|----16-------16-14-14-16----16-14-14-16-------16--| 
|-17-19----------17----------------17----------19--| 
|--------------------------------------------------| 
 
 
   S  S  S  S  S  S  S  S  S  S  S  S  S  S  S  S 
|----------12-------------12-------------12-------| 
|-------12-12----------12----12----------12-12----| 
|----12-------12-11-11-12----12-11-11-12-------12-| 
|-14-16----------14----------------14----------16-| 
|-------------------------------------------------| 
|-------------------------------------------------| 
 
 
   S  S  S  S  S  S S  S  S  S S  S Q 
|----------10------------10-------------| 
|-------10-10---------10----10------7---| 
|----11-------11--9-9-11----11-9--9-----| 
|-12-14----------12--------------12-----| 
|---------------------------------------| 
|---------------------------------------| 
 
 
  S S S S S S S S S S S S S S S S   S S S S S S S S S S S S S S S S 
|-7---7-7---7-7---8---7---6---6---|-7---7-7---7-7---8---7---6---6---| 
|---8-8-8-8-8-8-8-8-8---8---8---8-|---8-8-8-8-8-8-8-8-8---8---8---8-| 
|---9-----9-----9---9---9---9---9-|---9-----9-----9---9---9---9---9-| 
|---------------------------------|---------------------------------| 
|---------------------------------|---------------------------------| 
|---------------------------------|---------------------------------| 
 
 
  S S S S S S S S S S S S S S S S   S S S S S S  E  +H 
|-7---7-7---7-7---8---7---6---6---|-7---7-7-----10-(10)----| 
|---8-8-8-8-8-8-8-8-8---8---8---8-|---8-8-8-8-8------------| 
|---9-----9-----9---9---9---9---9-|---9-----9--------------| 
|---------------------------------|------------------------| 
|---------------------------------|------------------------| 
|---------------------------------|------------------------| 
 
 
  Q=120 
 12/8 
  W              W              W 
|--------------|--------------|------| 
|--------------|--------------|------| 
|--------------|--------------|------| 
|--------------|--------------|------| 
|--------------|--------------|------| 
|--------------|--------------|------| 
 
 
  W              W              W 
|--------------|--------------|------| 
|--------------|--------------|------| 
|--------------|--------------|------| 
|--------------|--------------|------| 
|--------------|--------------|------| 
|--------------|--------------|------| 
 
 
  W              W              W 
|--------------|--------------|------| 
|--------------|--------------|------| 
|--------------|--------------|------| 
|--------------|--------------|------| 
|--------------|--------------|------| 
|--------------|--------------|------| 
 
 
  W              W              W 
|--------------|--------------|------| 
|--------------|--------------|------| 
|--------------|--------------|------| 
|--------------|--------------|------| 
|--------------|--------------|------| 
|--------------|--------------|------| 
 
 
  W              W 
|--------------|------| 
|--------------|------| 
|--------------|------| 
|--------------|------| 
|--------------|------| 
|--------------|------| 
 
 
   Q.    Q.   S S S E. +Q   S S 
|-------------------------------| 
|-10----10----8-9-------------5-| 
|-----------------9-7--(7)--7---| 
|-------------------------------| 
|-------------------------------| 
|-------------------------------| 
 
 
  E S S S  S  Q  S S  S  S  S  S  S S  S S S  S S S 
|-5-7-8-9-10------------10---------------------------| 
|------------10--8-8-10-12-12-10-10-8-10-8-8---------| 
|------------------9----------12----9----9----9---7--| 
|--------------------------------------------12-9-9--| 
|----------------------------------------------------| 
|----------------------------------------------------| 
 
 
  S S S S S S Q.   S  S  S  S  S  S  S  S  S  S  S  S 
|--------------------------13----------------13-------| 
|-----------------------10-13-13----------10-13-13----| 
|-----------------------10----14----------10----14----| 
|-7-5-5-6-5-6--------10----------15----10----------15-| 
|---7---------7----8-12----------15-12-12----------15-| 
|-----------------------------------13----------------| 
 
 
   Q  E  S  S  S  S  S  S  S  S  S  S  S  S  S  S  S  S  S  S 
|-------------------------------------------------------------| 
|-------------------------------20----------------------------| 
|-------------------19----21-19----19----21-19----19----------| 
|----------17-19-21----21-------------21-------21----21-19-17-| 
|-18----19----------------------------------------------------| 
|-17----------------------------------------------------------| 
 
 
   H     +E   E  Q   E  E  E  E 
|--------------------------------| 
|-15----(15)-15-14-----14--------| 
|-------------------12----14-12--| 
|--------------------------------| 
|--------------------------------| 
|--------------------------------| 
 
 
   Q   E  Q.    S  S  S  S  S  S  S  S  S  S  S  S 
|-17--17-17----15-17-17----------15----15-17-15-17-| 
|-----------------20----17-15-17----17-17-15-17-20-| 
|-----------------------19----19----19-------------| 
|--------------------------------------------------| 
|--------------------------------------------------| 
|--------------------------------------------------| 
 
 
   S  S  S  S  S  S  S  S  S  S  S  S  S  S  S  S  S  S  S  S  S  S  S  S 
|-------15----------------------------------------------------------------| 
|-17-15----17----17-15-15----------15----17-------15----------------------| 
|-21-16----19-16-19----16-16-14-14-16-16-18-18-16----16-15-14-12----14-12-| 
|----------------------------17----------------------------------14-------| 
|-------------------------------------------------------------------------| 
|-------------------------------------------------------------------------| 
 
 
   S  S  S  S  S  S  S  S  S  S  S  S  Q   E  Q.      Q   E  E  E  E  H. 
|-------------------------------------12--12-12----|-12--12-10-11-----------| 
|--------------------------------------------------|--------------12-13-----| 
|----------------12----------11-12-11--------------|------------------------| 
|-14-12----16-14-16-14-12-12-14----14--------------|------------------------| 
|----14-12-14----------16--------------------------|------------------------| 
|--------------------------------------------------|------------------------| 
 
 
   E  E  S  S  E  S  S  E  Q.    E  E  S  S 
|----17-------15-------14-------------------| 
|-14----------------------17----14----12----| 
|-------18-16----16-14----14----14----12-13-| 
|----------------------------------14----17-| 
|-------------------------------------------| 
|-------------------------------------------| 
 
 
   Q   S  S  S  S  S  S  S  S  S  S S  S  S  S  S  S  S  S  S  S 
|--------------------10----------------6-10----15-----------------| 
|-----------------12-12-12-11-11-10-8-10-12-12-17-17-17-15-17-----| 
|--------12----12-------15-14-14-12-9-------15----19-19-16-19-18--| 
|-14--14-14-12-14---------------------------------------------21--| 
|-----------------------------------------------------------------| 
|-----------------------------------------------------------------| 
 
 
   S  S  S  S  S  S  S  S  S  S  s S  S  E  S  E  +Q. 
|-------------12-------12----12-15---12-17-15-22-(22)---*| 
|----------12----12-11-11-10-10-------------------------*| 
|----------16-------------------13----------------------*| 
|-20-19-20----------------------------------------------*| 
|-24-22-24----------------------------------------------*| 
|-------------------------------------------------------*| 
 
 
 

roll up this ad to continue

share this page

See Also: