E-Chords
Jason Becker

Dweller in the cellar(Tabs)

Jason Becker

Key: E
  S E. +Q   +S  S S S  S E S   S S S S E. S Q  S E.   +S  S S S Q  +Q.   S S 
|----------------------------|----------------------|------------------------| 
|-3-5--(5)--(5)---5----7-8-7-|-5-7---5-5---------3--|-(3)------------------5-| 
|---------------------11-----|------------4-5--5----|-----4---4-4--(4)---4---| 
|----------------------------|-----------------9----|------------------------| 
|----------------------------|----------------------|------------------------| 
|----------------------------|----------------------|------------------------| 
 
 
  S E. +E  S S Q  +S  E.   +Q   +S   E.  +H 
|---2--(2)---0--------8--|-(8)--(8)-15--(15)----| 
|-5--------1---1--(1)----|----------------------| 
|-4----------------------|----------------------| 
|------------------------|----------------------| 
|------------------------|----------------------| 
|------------------------|----------------------| 
 
 
   +S   E.  +Q    +S   E.  +Q      +S   E.  +Q    +S   E.  +Q 
|-(15)-17--(17)--(17)-17--(17)--|-(17)---------------------------| 
|-------------------------------|------19--(19)--(19)-19--(19)---| 
|-------------------------------|--------------------------------| 
|-------------------------------|--------------------------------| 
|-------------------------------|--------------------------------| 
|-------------------------------|--------------------------------| 
 
 
   +S   E.  +Q    +S   E.  +Q      +S   E.  +Q    +E   S  S  S  S  S  S 
|-------------------------------|---------------------------------------| 
|-(19)-17--(17)--(17)-15--(15)--|-(15)----------------------------------| 
|-------------------------------|------------------------------16-17-16-| 
|-------------------------------|------17--(17)--(17)-17-19-17----------| 
|-------------------------------|---------------------------------------| 
|-------------------------------|---------------------------------------| 
 
 
   +S   E.  +Q    +E   S  S  S  S  S  S 
|---------------------------------------| 
|---------------------------------------| 
|-(16)-------------------------16-17-16-| 
|------17--(17)--(17)-17-19-17----------| 
|---------------------------------------| 
|---------------------------------------| 
 
 
   H     +S  S E Q    S  E.  +Q    +H 
|-------------------|---------------------| 
|-------------------|---------------------| 
|-17----(17)--------|---------------------| 
|-20----(20)--------|---19--(19)--(19)----| 
|-------------------|---------------------| 
|-------------------|---------------------| 
 
 
   +S   E.  +Q    +H        +S   E.  +Q    +S   E.  +Q 
|------------------------|------17--(17)--(17)-17--(17)---| 
|------19--(19)--(19)----|-(19)---------------------------| 
|------------------------|--------------------------------| 
|-(19)-------------------|--------------------------------| 
|------------------------|--------------------------------| 
|------------------------|--------------------------------| 
 
 
   +S   E.  +Q    +S   E.  +Q      +S   E.  +Q    +S   E.  +Q 
|-(17)--------------------------|-------------------------------| 
|------19--(19)--(19)-19--(19)--|-(19)-17--(17)--(17)-15--(15)--| 
|-------------------------------|-------------------------------| 
|-------------------------------|-------------------------------| 
|-------------------------------|-------------------------------| 
|-------------------------------|-------------------------------| 
 
 
   +S   E.  +E.  S  S  S  S  S  S  S  E 
|------16--(16)-------17-------17-------| 
|-(15)----------17-------17-------17----| 
|------------------16-------16-------16-| 
|---------------------------------------| 
|---------------------------------------| 
|---------------------------------------| 
 
 
   +S   E.  +E.  S  S  S  S  S  S  S  E 
|---------------------------------------| 
|---------------------13-------13-------| 
|-(16)-16--(16)-------------------------| 
|---------------14-------14-------14----| 
|------------------15-------15-------15-| 
|---------------------------------------| 
 
 
   +S   E.  +E   S  S S  S  S  S S  S  S  S   S  E  S  S S S S H 
|-------------------------------------------|-----------------------| 
|-------------------------------------------|------12-10---8---7----| 
|-------------------------------------------|-----------------------| 
|------16--(16)-16-14---12-12-14---16-16-14-|---12------------------| 
|-(15)--------------------------------------|-----------------------| 
|-------------------------------------------|-----------------------| 
 
 
  +S  E. +Q   +E  S  S S S S S   +S  E. +Q   +E  S  S S S S S 
|------------------------7-8-7-|-(7)--------------------7-8-7-| 
|-(7)-8--(8)--(8)-8-10-8-------|-----8--(8)--(8)-8-10-8-------| 
|------------------------------|------------------------------| 
|------------------------------|------------------------------| 
|------------------------------|------------------------------| 
|------------------------------|------------------------------| 
 
 
                     2/4 
   H     +S  S E Q    S  E.  +Q 
|--8-----(8)--------|-------------| 
|-11----(11)--------|---10--(10)--| 
|-------------------|-------------| 
|-------------------|-------------| 
|-------------------|-------------| 
|-------------------|-------------| 
 
 
                           Q=92 
 4/4 
   +S   E.  +Q    +H        +S   E S S  E.  +S   E.  +Q 
|------20--(20)--(20)----|-(20)---------------------------| 
|-(10)-------------------|--------------------------------| 
|------------------------|--------------------------------| 
|------------------------|--------------------------------| 
|------------------------|----------------------15--(15)--| 
|------------------------|------17-----17--(17)-----------| 
 
 
   +S   E  S  +S   E.  +S   E  S  +E   E    +S   E S S  E.  +S   E.  +Q 
|----------------------------------------|---------------------------------| 
|----------------------------------------|---------------------------------| 
|----------------------------------------|---------------------------------| 
|----------------------------------------|----------------------10--(10)---| 
|-(15)---------------------15-14-(14)-13-|-(13)-12-----12--(12)------------| 
|------17-17-(17)-17--(17)---------------|---------------------------------| 
 
 
   +S   E  S  +S   E.  +S   E.  +Q      +S   E S S  E.  +S   E.  +Q 
|------------------------------------|--------------------------------| 
|------------------------------------|--------------------------------| 
|------------------------------------|----------------------13--(13)--| 
|-(10)-------------------------------|------15-----15--(15)-----------| 
|------12-12-(12)-12--(12)-14--(14)--|-(14)---------------------------| 
|------------------------------------|--------------------------------| 
 
 
   +S   E  S  +S   E.  +S   E  S  +E   E    +S   E S S  E.  +S  E. +Q 
|----------------------------------------|-------------------------------| 
|----------------------------------------|----------------------9--(9)---| 
|-(13)---------------------13-12-(12)-11-|-(11)-10-----10--(10)----------| 
|------15-15-(15)-15--(15)---------------|-------------------------------| 
|----------------------------------------|-------------------------------| 
|----------------------------------------|-------------------------------| 
 
 
  +S   E  S  +S   E.  +S  E. +Q     +S  E S S E. +S  E. +Q 
|---------------------------------|--------------------------| 
|-(9)---------------------8--(8)--|-(8)--------------5--(5)--| 
|-----10-10-(10)-10--(10)---------|-----6-----6--(6)---------| 
|---------------------------------|--------------------------| 
|---------------------------------|--------------------------| 
|---------------------------------|--------------------------| 
 
 
  +S  E S +S  E. +S  E S +E  E   +S  E S S E. +S  E. +Q 
|------------------------------|---------------------------| 
|-(5)----------------5-4-(4)-3-|-(3)-2-----2--(2)-5--(5)---| 
|-----6-6-(6)-6--(6)-----------|---------------------------| 
|------------------------------|---------------------------| 
|------------------------------|---------------------------| 
|------------------------------|---------------------------| 
 
 
  +S  E S +S  E. +S  E. +Q     +S  E S S E. +S  E. +Q 
|----------------------------|--------------------------| 
|-(5)----------------4--(4)--|-(4)--------------1--(1)--| 
|-----6-6-(6)-6--(6)---------|-----2-----2--(2)---------| 
|----------------------------|--------------------------| 
|----------------------------|--------------------------| 
|----------------------------|--------------------------| 
 
 
  +S  E S +S  E. +S  E S +E  E   +S  E S S E. +S  E. +Q 
|------------------------------|---------------------------| 
|-(1)----------------1-0-(0)---|------------------1--(1)---| 
|-----2-2-(2)-2--(2)---------3-|-(3)-2-----2--(2)----------| 
|------------------------------|---------------------------| 
|------------------------------|---------------------------| 
|------------------------------|---------------------------| 
 
 
  +S  E S +S  E. +S  E. +Q     +S  E. +Q   +H 
|----------------------------|--------------------| 
|-(1)------------------------|-----2--(2)--(2)----| 
|-----2-2-(2)-2--(2)-4--(4)--|-(4)----------------| 
|----------------------------|--------------------| 
|----------------------------|--------------------| 
|----------------------------|--------------------| 
 
 
  +E. S +E  E +S  E. S E S   +E. S +Q   +H 
|--------------------------|-------------------| 
|-(2)-1-(1)-2-(2)-3--2-1---|-------------------| 
|------------------------2-|-(2)-4-(4)--(4)----| 
|--------------------------|-------------------| 
|--------------------------|-------------------| 
|--------------------------|-------------------| 
 
 
  +H     +Q   +S  E.   +H     +S  E. +Q 
|-----------------8--|-(8)----(8)-9--(9)--| 
|--------------------|--------------------| 
|-(4)----(4)--(4)----|--------------------| 
|--------------------|--------------------| 
|--------------------|--------------------| 
|--------------------|--------------------| 
 
 
  +S   E.  +Q    +Q    +S   E.    +S  E  S  +Q    +S  E  S  +S   E. 
|-(9)-21--(21)--(21)--(21)-24--|-(24)-------------------------------| 
|------------------------------|------------------------------------| 
|------------------------------|--------------------------------22--| 
|------------------------------|--------22-(22)--(22)---24-(24)-----| 
|------------------------------|------------------------------------| 
|------------------------------|------------------------------------| 
 
 
   S  E.  +Q    +Q..    S    +S   S  S  S S  S  S  S S  S  S  S  +S   E. 
|-------------------------|----------------------------------------------| 
|-------------------------|----------------------------------------------| 
|-------------------------|----------------------------20-19-18-(18)-19--| 
|-24-23--(23)--(23)----23-|-(23)-24-23-24---22-23-24---24----------------| 
|-------------------------|----------------------------------------------| 
|-------------------------|----------------------------------------------| 
 
 
   +E.  S  +E   E  +S   E.  +S   S  E 
|-------------------------------------| 
|-------------------------------------| 
|-(19)-18-(18)-19-(19)-19--(19)-18----| 
|----------------------------------20-| 
|-------------------------------------| 
|-------------------------------------| 
 
 
   +S   E.  +Q    +Q    +S   S S  S    +W 
|--------------------------------20-|-(20)--------| 
|-----------------------------------|-------------| 
|-----------------------------------|-------------| 
|-(20)-22--(22)--(22)--(22)---------|-------------| 
|-----------------------------------|-------------| 
|---------------------------19------|-------------| 
 
 
   +S   E.  +E   E  +S   E.  +E.  S    +S   E.  E  S  S S  E.  +Q 
|-(20)------------------------------|--------------------------------| 
|-----------------------------------|--------------------------------| 
|-----------------------------------|--------------------------------| 
|-----------------------23--(23)-22-|-(22)-23--22-23-24---23--(23)---| 
|------20--(20)-21-(21)-------------|--------------------------------| 
|-----------------------------------|--------------------------------| 
 
 
                           2/4 
   +S   E.  Q   +Q..    S    +S   E.  +Q 
|-------------------------|----------------| 
|-------------------------|----------------| 
|-------------------------|----------------| 
|-(23)--------------------|----------------| 
|------21-----------------|----------------| 
|----------23--(23)----22-|-(22)-23--(23)--| 
 
 
  Q=120                             Q=88 
 4/4 
   +S  S S S S S S S S S S S S E.   +S  E. +S   E.  +H 
|---------------------------------|-----8--(8)-15--(15)----| 
|------4-------4------------------|------------------------| 
|------7-5-3---7-5-3--------------|------------------------| 
|----------7-5-----7-5-3-2-3------|------------------------| 
|------------------------------5--|-(5)--------------------| 
|-(23)----------------------------|------------------------| 
 
 
   +S   E.  +Q    +S   E.  +Q      +S   E.  +Q    +S   E.  +Q 
|-(15)-17--(17)--(17)-17--(17)--|-(17)--------------------------| 
|-------------------------------|------19--(19)--(19)-19--(19)--| 
|-------------------------------|-------------------------------| 
|-------------------------------|-------------------------------| 
|-------------------------------|-------------------------------| 
|-------------------------------|-------------------------------| 
 
 
   +S   E.  +Q    +S   E.  +Q      +S   E.  +E.  S  S  S  S  S  S  S  E 
|-------------------------------|------14--(14)-------14-------14--------| 
|-(19)-17--(17)--(17)-15--(15)--|-(15)----------14-------14-------14-----| 
|-------------------------------|------------------14-------14-------14--| 
|-------------------------------|----------------------------------------| 
|-------------------------------|----------------------------------------| 
|-------------------------------|----------------------------------------| 
 
 
  S  E.  +E   S  S  S  E.  +Q 
|-------------------------------| 
|---12--(12)-------10-----------| 
|------------12-11----11--(11)--| 
|---------------14--------------| 
|-------------------------------| 
|-------------------------------| 
 
 
   +S   S  S S S S S S S E. +Q     +S  S S S S S  S  S S E. +Q 
|--------------------------------|-----8-7-5---3-12-10---8--(8)--| 
|----------------7-8-7---7--(7)--|-(7)---------------------------| 
|-(11)-12-11-9-------------------|-------------------------------| 
|--------------------------------|-------------------------------| 
|--------------------------------|-------------------------------| 
|--------------------------------|-------------------------------| 
 
 
  Q=72 
  +S  E. +Q   +E.  S S S S S   +S  E. +Q   +E.  S  S S S S 
|-(8)------------------------|-----------------------------| 
|-----8--(8)--(8)------8-8-8-|-(8)-8--(8)--(8)-------8-8-8-| 
|----------------------------|-----------------------------| 
|----------------------------|-----------------------------| 
|-----------------10---------|-----------------10-10-------| 
|----------------------------|-----------------------------| 
 
 
  +S  E. +Q   +E.  S  S S S S 
|-----------------------------| 
|-(8)-8--(8)--(8)-------8-8-8-| 
|-----------------------------| 
|-----------------------------| 
|-----------------10-10-------| 
|-----------------------------| 
 
 
                                    Q=76 
  +S  S S S S S S S S S S S S S E   +S   E.  +E   S  S  S  S  S  S  S  S  S  S 
|---------------------------------|-----12--(12)-14-15-14-19----20----17-------| 
|-(8)-----------------------------|--------------------------20----19----19-20-| 
|---------------------------------|--------------------------23----------------| 
|-----------------------9---5---4-|-(4)----------------------------------------| 
|-----9-9-9-9-9-9-9-9---9---5---4-|-(4)----------------------------------------| 
|-----7-7-7-7-7-7-7-7---7---3---2-|-(2)----------------------------------------| 
 
 
   Q   +S   S  S  S  +Q.    S  S 
|--------------------------------| 
|-20--(20)-19-20-----------19-20-| 
|----------------21-(21)---------| 
|--------------------------------| 
|--------------------------------| 
|--------------------------------| 
 
 
  S  S  S  S  S  S  S  S  S  S  S  S  S  S  S  S 
|------------------15-14-12-10-10-14-------------| 
|---22-22-20-19-17-19-17-15-13-12-17-13-12-------| 
|------24-23-21-17-------------------16-14-12----| 
|------------------------------------------16-14-| 
|---------------------------------------------17-| 
|------------------------------------------------| 
 
 
   S S S S S S S S S E. +E  S S   S E. +S  S S S S S S S S S S S 
|----3-3-0----------------------|--------------------------------| 
|----7-5-3-3--------------------|--------------------------------| 
|----7-----5-2------------------|--------------------------------| 
|------------5-4-4-4------------|--------------------------------| 
|-15-----------7-7-7-5--(5)-3-2-|-3-2--(2)-----2-----2-----2---2-| 
|-19----------------------------|----------0-0---0-0---0-0---0---| 
 
 
  Q=72                                Q=76 
  S S S S S S S S S S S S S S  S  S    +S   E.  S  E.  S  E  S  S  E. 
|---------------------0---0-5-------|---------------------------------| 
|-----------------1-0-3-1-3-8-15-17-|-(17)-15-------------------------| 
|-----------0---2-4-2---4-----17----|----------16-14--12-------12-11--| 
|-----0---2-4-4-5-------------------|-----------------16-14-14-14-----| 
|---3-3-3-5---7---------------------|---------------------------------| 
|-0-7---7---------------------------|---------------------------------| 
 
 
   +S   E. S  E.  +S  S  S S S S S  S 
|-------------------------------------| 
|----------------------------7-8-8-10-| 
|-(11)-11--9---------------9----------| 
|------------10--(10)-9-10------------| 
|-------------------------------------| 
|-------------------------------------| 
 
 
   S E. +Q   +E  S S S  S S S   S  E.  S  E.  +S  S  S  S  S  S  S  S 
|-----------------------------|---10--10------------------------------| 
|-10-8--(8)--(8)-8-7-8-10-8-7-|-8-----12-12--(12)---12-11-12-13-12-11-| 
|-----------------------------|---------------------------------------| 
|-----------------------------|---------------------------------------| 
|-----------------------------|---------------------------------------| 
|-----------------------------|---------------------------------------| 
 
 
                                2/4 
   S  E.  S  E.  +E.  S  S  E.    S  E.  +Q 
|------------------------------|--------------| 
|-12-11------------------------|--------------| 
|--------12--------------------|--------------| 
|-----------14--(14)-14-16-17--|-17-16--(16)--| 
|------------------------------|-21-----------| 
|------------------------------|--------------| 
 
 
                           Q=88 
 4/4 
   +S   E.  +Q    +H        +S   E S S  E.  +S   E.  +Q 
|------20--(20)--(20)----|-(20)---------------------------| 
|------------------------|--------------------------------| 
|------------------------|--------------------------------| 
|-(16)-------------------|--------------------------------| 
|------------------------|----------------------15--(15)--| 
|------------------------|------17-----17--(17)-----------| 
 
 
   +S   E  S  +S   E.  +S   E  S  +E   E    +S   E S S  E.  +S   E.  +Q 
|----------------------------------------|---------------------------------| 
|----------------------------------------|---------------------------------| 
|----------------------------------------|---------------------------------| 
|----------------------------------------|----------------------10--(10)---| 
|-(15)---------------------15-14-(14)-13-|-(13)-12-----12--(12)------------| 
|------17-17-(17)-17--(17)---------------|---------------------------------| 
 
 
   +S   E  S  +S   E.  +S   E.  +Q      +S   E S S  E.  +S   E.  +Q 
|------------------------------------|--------------------------------| 
|------------------------------------|--------------------------------| 
|------------------------------------|----------------------13--(13)--| 
|-(10)-------------------------------|------15-----15--(15)-----------| 
|------12-12-(12)-12--(12)-14--(14)--|-(14)---------------------------| 
|------------------------------------|--------------------------------| 
 
 
   +S   E  S  +S   E.  +S   E  S  +E   E    +S   E S S  E.  +S  E. +Q 
|----------------------------------------|-------------------------------| 
|----------------------------------------|----------------------9--(9)---| 
|-(13)---------------------13-12-(12)-11-|-(11)-10-----10--(10)----------| 
|------15-15-(15)-15--(15)---------------|-------------------------------| 
|----------------------------------------|-------------------------------| 
|----------------------------------------|-------------------------------| 
 
 
  +S   E  S  +S   E.  +S  E. +Q     +S  E S S E. +S  E. +Q 
|---------------------------------|--------------------------| 
|-(9)---------------------8--(8)--|-(8)--------------5--(5)--| 
|-----10-10-(10)-10--(10)---------|-----6-----6--(6)---------| 
|---------------------------------|--------------------------| 
|---------------------------------|--------------------------| 
|---------------------------------|--------------------------| 
 
 
  +S  E S +S  E. +S  E S +E  E   +S  E S S E. +S  E. +Q 
|------------------------------|---------------------------| 
|-(5)----------------5-4-(4)-3-|-(3)-2-----2--(2)-5--(5)---| 
|-----6-6-(6)-6--(6)-----------|---------------------------| 
|------------------------------|---------------------------| 
|------------------------------|---------------------------| 
|------------------------------|---------------------------| 
 
 
  +S  E S +S  E. +S  E. +Q     +S  E S S E. +S  E. +Q 
|----------------------------|--------------------------| 
|-(5)----------------4--(4)--|-(4)--------------1--(1)--| 
|-----6-6-(6)-6--(6)---------|-----2-----2--(2)---------| 
|----------------------------|--------------------------| 
|----------------------------|--------------------------| 
|----------------------------|--------------------------| 
 
 
  +S  E S +S  E. +S  E S +E  E   +S  E S S E. +S  E. +Q 
|------------------------------|---------------------------| 
|-(1)----------------1-0-(0)---|------------------1--(1)---| 
|-----2-2-(2)-2--(2)---------3-|-(3)-2-----2--(2)----------| 
|------------------------------|---------------------------| 
|------------------------------|---------------------------| 
|------------------------------|---------------------------| 
 
 
  +S  E S +S  E. +S  E. +Q 
|----------------------------| 
|-(1)------------------------| 
|-----2-2-(2)-2--(2)-4--(4)--| 
|----------------------------| 
|----------------------------| 
|----------------------------| 
 
 
  Q=100 
  +S   S  S  S  S  S  S  S  S  S  S  S  S  S  S  S 
|--------------------------------------------------| 
|-----15-17-18----------------------------------13-| 
|-(4)-17----21-19-17----------17----17-17-17-------| 
|-----------------21-19-17----21-19-17----15-14-12-| 
|-----------------------20-19----------------------| 
|--------------------------------------------------| 
 
 
   S  S  S  S  S  S  S S S S S S S S S S 
|----------------------------------------| 
|-13-----------------------1---1-1-----1-| 
|----------------------0---4-2-0---5-----| 
|----12-14-15----------3-2---------3-2-0-| 
|----15----19-17-15----------------------| 
|----------------19-17-------------------| 
 
 
  S S S S S S S S S  S  S  S  S  S  S  S 
|----------------------------------------| 
|-1--------------------------------------| 
|-------------------------------------10-| 
|---0-2-3-------5-7--9----------10-12-14-| 
|---3---7-5-5-7-8---12-10-10-12-14-------| 
|-----------8-------------13-------------| 
 
 
  S  S  S  S  S  S S  S S  S  S  S  S  S  S S   S S S S S S S S S E S S S S S 
|---------------------------------------------|-------------------------------| 
|-8-10-----------8----------------------------|---------1-0---1---5-6---------| 
|---12-10--9----10-9--7---10------------------|-------4---2-0-2-2---9-7-5-----| 
|---------12-10------10-9-14-12-10----------0-|---0-2-3-----------------9-5---| 
|-------------------------------14-12-10----3-|-2-3-------------------------5-| 
|-------------------------------------13-12---|-------------------------------| 
 
 
  +S  E S S S S S S  S S S S S S S 
|-----3-1-0-0-1-5-7--8-8-8---------| 
|-----------3---8---12---6-5-----6-| 
|----------------------------5-5-9-| 
|----------------------------9-----| 
|-(5)------------------------------| 
|----------------------------------| 
 
 
  S  S S  S  S  S  S  S  S  S  S  S  S  S  S  S 
|-----------------------------------------------| 
|-----------------------------------------------| 
|-7------------------------------------------16-| 
|--------------------10-12-12-14-15----15-17-19-| 
|----7-8-10----10-12-14----15----19-17-19-------| 
|---10---13-12-13-------------------------------| 
 
 
   S  S  S  S  S  S  S  S  S  S  S  S  S  S  S  S 
|----------------------17-19-20----19----20-------| 
|-------15-17----17-18-20----20----20-17-20-------| 
|-17-17----19-17-19-------------21----------21----| 
|----21----------------------------------------22-| 
|----------------------------------------------22-| 
|-------------------------------------------------| 
 
 
   S S S  S S S E +S   S S  S  S  S  S  S 
|----------------------8-8-12-12-15-15-20-| 
|---------------------12---15----18----24-| 
|----5--------5---------------------------| 
|----5----9---5---------------------------| 
|------7-10-7---7-(7)---------------------| 
|-24--------------------------------------| 
 
 
   S  S  S  S  S  S  S  S  S  S  S  S  S  S  S  S 
|-20-------------------17-17-15-17----------------| 
|----------------17-17-20----18----18-20-------22-| 
|----------17-17-19----------------21----21-22-24-| 
|----19-19-21----------------------------24-------| 
|----22-------------------------------------------| 
|-------------------------------------------------| 
 
 
   S  S  S  S  S S E +S  E. +Q 
|----20--------------------------| 
|-24-20------------------9--(9)--| 
|-------21-------5---------------| 
|----------22----5---------------| 
|----------22------7-(7)---------| 
|-------------24-----------------| 
 
 
  +S   S  S  S S  S  S  S  S  E.  S  E. 
|---------------------------------------| 
|-(9)-10-------9-------10----12--10-10--| 
|-----13-10-10---10----13-10------------| 
|-----------14---14-12------------------| 
|---------------------------------------| 
|---------------------------------------| 
 
 
   +Q    +S  S S S S  E.  +E   S  S    S  E.  +E.  S S  E.  +E   S  S 
|------------8-7-8---10--(10)-11-12-|-10-10--(10)------10--(10)----12--| 
|-(10)--(10)---------------------16-|-------------12------------12-15--| 
|-----------------------------------|----------------------------------| 
|-----------------------------------|----------------------------------| 
|-----------------------------------|----------------------------------| 
|-----------------------------------|----------------------------------| 
 
 
   S  E.  +Q    +S   E.  +S   E.    +S   S  S  S S  E.  S  S  S  S  S  S  S  S 
|-13-14--(14)--(14)-18--(18)-18--|-(18)-17-16-17---16--------------------------| 
|--------------------------------|---------------------17-17-------------------| 
|--------------------------------|------------------------17-17-17----17-------| 
|--------------------------------|---------------------------21-21-19-21-19-21-| 
|--------------------------------|---------------------------------------23-24-| 
|--------------------------------|---------------------------------------------| 
 
 
   S  S  S  S  S  E.  S  S  S  S  S  S  S  S 
|-----------------------------------15--------| 
|--------------------------------17----15-17--| 
|----19----17-----------19-19-17-19----16-----| 
|-22-22-21-21-19-19-----------21--------------| 
|-------------23-----21-----------------------| 
|---------------------------------------------| 
 
 
   +S   S  S  S  S  S  S  S  S  S  S  S  S  S  S  S 
|------------------10-12----------------------------| 
|-(17)----------10-12----13-------------------------| 
|---------------14-------16-14----------------------| 
|------17----17----------------14----14----14-------| 
|------21-19-21----------------15-14-15-14-15-14-15-| 
|---------------------------------------------------| 
 
 
                              Q=120 
 2/4                         4/4 
   +S   S  S  S  S  S  S  S    +S   E.  +Q    +S   E  S  +S   E. 
|---------------------------|------------------------------------| 
|---------------------------|------------------------------------| 
|---------------------------|------------------------------------| 
|---------------------------|------14--(14)--(14)-16-17-(17)-19--| 
|-(15)-15----15----15-------|------------------------------------| 
|------19-15-19-15-19-15-12-|-(12)-------------------------------| 
 
 
   +S   E.  +S   E.  +S   E  S  +S   E.    +S  E. +Q   +S  E S +S   E. 
|---------------------------------------|------------------------------| 
|---------------------------------------|------------------7-8-(8)-10--| 
|------------------------14-12-(12)-11--|-(11)-9--(9)--(9)-------------| 
|-(19)-17--(17)-16--(16)----------------|------------------------------| 
|---------------------------------------|------------------------------| 
|---------------------------------------|------------------------------| 
 
 
   +S  E. +S  E. +S  E S +S  E.   +S  E. +Q   +S  E S +S   E. 
|--------------------5-3-(3)-2--|-(2)-------------------------| 
|-(10)-8--(8)-7--(7)------------|-----5--(5)--(5)-7-8-(8)-10--| 
|-------------------------------|-----------------------------| 
|-------------------------------|-----------------------------| 
|-------------------------------|-----------------------------| 
|-------------------------------|-----------------------------| 
 
 
   +S  E. +S  E. +S  E S +S  E.   +S  E. +Q   +S  E S +S   E. 
|--------------------5-3-(3)-2--|-(2)-------------------------| 
|-(10)-8--(8)-7--(7)------------|-----5--(5)--(5)-7-8-(8)-10--| 
|-------------------------------|-----------------------------| 
|-------------------------------|-----------------------------| 
|-------------------------------|-----------------------------| 
|-------------------------------|-----------------------------| 
 
 
   +S  E. +S  E. +S  E S +S  E.   +S  E. +E. S S E. +E. S 
|--------------------5-3-(3)-2--|-(2)----------------------| 
|-(10)-8--(8)-7--(7)------------|-----3--(3)-3---2--(2)----| 
|-------------------------------|--------------4--------4--| 
|-------------------------------|--------------------------| 
|-------------------------------|--------------------------| 
|-------------------------------|--------------------------| 
 
 
  S E. +E. S S E S +E. S   S E. +S  E S +S  E S S E S 
|------------------------|----------------------------| 
|-3-5--(5)-5-3-3---------|----------------------------| 
|----------------4-(4)-4-|-2-0--(0)-2-0-(0)-----------| 
|------------------------|------------------4-5-4-2-0-| 
|------------------------|----------------------------| 
|------------------------|----------------------------| 
 
 
  +S  E. +S  E. +H       +S  E. +E. S S E. +E. S 
|----------------------|-------------------------| 
|----------------------|-----3--(3)-3---2--(2)---| 
|----------------------|--------------4--------4-| 
|-(0)-2--(2)-----------|-------------------------| 
|------------2--(2)----|-(2)---------------------| 
|----------------------|-------------------------| 
 
 
  S E. +E. S S E S +E. S   S E. +S  E S +S  E S S E S 
|------------------------|----------------------------| 
|-3-5--(5)-5-3-3---------|----------------------------| 
|----------------4-(4)-4-|-2-0--(0)-2-0-(0)-----------| 
|------------------------|------------------4-5-4-2-0-| 
|------------------------|----------------------------| 
|------------------------|----------------------------| 
 
 
  +S  E. +S  E. +H       +S  S E Q  H 
|----------------------|-----------------*| 
|----------------------|-----------------*| 
|----------------------|-----------------*| 
|-(0)-2--(2)-----------|-----------------*| 
|------------2--(2)----|-(2)-------------*| 
|----------------------|-----------------*| 
 
 

roll up this ad to continue

share this page

See Also: