E-Chords
Jason Becker

5th Caprice.(Tabs)

Jason Becker

Key: E
 4/4 
   
  S S S S S S S S S S S S S S S S   S S S S S S S S S S S S S S S S 
|-----0-------------5-3-1-0-------|-----0-------------5-3-1-0--------| 
|---1---1-0-3-5-3-1---------3-1-0-|---1---1-0-3-5-3-1---------3-1-0--| 
|-2-------------------------------|-2--------------------------------| 
|---------------------------------|----------------------------------| 
|---------------------------------|----------------------------------| 
|---------------------------------|----------------------------------| 
 
 
  S S S S S S S S S S S S S S S S   S S S S S S S S S S S  S  S  E. 
|---------------------------------|-------------5-----4-7-10-14-17---| 
|---2-5-------6-------6-------5---|-----6---------4-5----------------| 
|-2-----6---7---7---4---4---5---5-|---5---7-5------------------------| 
|---------7-------5-------5-------|-5---------7----------------------| 
|---------------------------------|----------------------------------| 
|---------------------------------|----------------------------------| 
 
 
   S  S  S  S  S  S  S  S  S  S  S  S  S  S S S 
|----------------------------17-15-13-12-10-8-7-| 
|-------17-------15-17-15-13--------------------| 
|----17----17-16--------------------------------| 
|-19--------------------------------------------| 
|-----------------------------------------------| 
|-----------------------------------------------| 
 
 
  S S  S  S  S  S  S  S S  S  S  S  S  S S S 
|-5-8-12-------10-12-10-8-17-15-13-12-10-8-7-| 
|--------13-12-------------------------------| 
|--------------------------------------------| 
|--------------------------------------------| 
|--------------------------------------------| 
|--------------------------------------------| 
 
 
                                                 2/4 
  S S  S  S  S  S  S  S  S  S  S  S  S  S  S  S   S S S S E E 
|-5-9-12----17-15-13-12-------19-17-15-13-12-10-|-8-7-5-3-2-3-| 
|--------14-------------13-15-------------------|-------------| 
|-----------------------------------------------|-------------| 
|-----------------------------------------------|-------------| 
|-----------------------------------------------|-------------| 
|-----------------------------------------------|-------------| 
 
 
 4/4 
  S S S S S S S S S S S S S S S S   S S S S S S S S S S S S S S E 
|---8-------7-------5-------3-----|---1-------1-------1-------3---| 
|-5---8-------6-------5-------3---|-----1-------1-------0---1---5-| 
|-------9-7-----7-5-----5-4-----4-|-2-----2-1-----1-0-----0-------| 
|---------------------------------|-------------------------------| 
|---------------------------------|-------------------------------| 
|---------------------------------|-------------------------------| 
 
 
                                          2/4 
  S S S S S S S S  S S  S  S  S  S  S  S    S  S  S  S  S  S  S  S 
|---7-------8--------8----------11-------|----15-------------------| 
|-3---6---5---8--------10----------13----|-------17-------18-------| 
|-------7-------9-10------10-11-------14-|-12-------17-------19----| 
|----------------------------------------|-------------17-------21-| 
|----------------------------------------|-------------------------| 
|----------------------------------------|-------------------------| 
 
 
 4/4 
   S  S  S  S  S  S  S  S  S  S  S  S  S  S  S  S 
|----20-19-17-15-13-12-11----19-17-15-14-12-11----| 
|-------------------------12-------------------12-| 
|-------------------------------------------------| 
|-22----------------------------------------------| 
|-------------------------------------------------| 
|-------------------------------------------------| 
 
 
   S  S  S  S  S  S S  S  S  S  S  S  S S S S 
|-12-17-15-13-12-10-9----10-15-13-12-10-8-7-5--| 
|---------------------10-----------------------| 
|----------------------------------------------| 
|----------------------------------------------| 
|----------------------------------------------| 
|----------------------------------------------| 
 
 
  S S S S  S  S  S  S  S  S  S  S  S  S S S 
|-3-2-5-8-11-14-17-20-20------------------0-| 
|------------------------20-------------1---| 
|---------------------------21--------------| 
|------------------------------22-----------| 
|---------------------------------22--------| 
|------------------------------------24-----| 
 
 
   S  S  S  S  S  S  S  S  S  S  S  S  S  S  S  S 
|-15-------------------------20-19-18-17-16-15-14-| 
|----15-------------------------------------------| 
|-------16----------------------------------------| 
|----------17-------------------------------------| 
|-------------17----17----------------------------| 
|----------------19----19-20----------------------| 
 
 
   S  S  S  S S S S S S S S S S S S S   S S S S S S S S S S S S S S S S 
|-13-12-11-10-9-8-7-6-5-4-3-2-1-0-----|---0-5-3---3-1-----0-------3-1---| 
|---------------------------------4-3-|-1-------------3-1-----1-0-----3-| 
|-------------------------------------|---------4-----------0-----------| 
|-------------------------------------|---------------------------------| 
|-------------------------------------|---------------------------------| 
|-------------------------------------|---------------------------------| 
 
 
  S S S S S S S S S S S S S S S S   S S S S S S S S S S S S S S S S 
|---0-------3-1-----0-------1-----|-------------------3-------3-----| 
|-1-----1-0-----3-1---3-1-0---3---|---1-0-----3---------5-------5---| 
|-----0-------------------------4-|-2-----2-1---4---5-----5-3-----3-| 
|---------------------------------|---------------6-----------------| 
|---------------------------------|---------------------------------| 
|---------------------------------|---------------------------------| 
 
 
  S S S S S S S S S  S  S  S  S  S  S  S 
|---1---------------13----------12-------| 
|-----1-----5----------13----------14----| 
|-2-----2-0---5-----------13-12-------12-| 
|---------------5-7----------------------| 
|----------------------------------------| 
|----------------------------------------| 
 
 
   S  S  S  S S S S S  S  S  S  S S S S S 
|----10---------9--------10---------7-5---| 
|-------10--------8---------10----------4-| 
|-10-------10-9-----9-10-------10-8-------| 
|-----------------------------------------| 
|-----------------------------------------| 
|-----------------------------------------| 
 
 
  S S S S S S S S S  S  S  S  S  S  S  S 
|---6-------5-------18----------17-17----| 
|-3---6-------4---3----18----------------| 
|-------7-5-----5---------19-18-------18-| 
|----------------------------------------| 
|----------------------------------------| 
|----------------------------------------| 
 
 
   S  S  S  S  S  S  S  S  S  S  S  S  S  S  S  S 
|-------------------------------------------------| 
|----20----------19----------20----------18-------| 
|-------19----------17----------19----------19----| 
|-20-------20-19-------19-20-------20-18-------18-| 
|-------------------------------------------------| 
|-------------------------------------------------| 
 
 
   S  S  S  S  S  S  S  S  S  S  S  S  S  S  S  S 
|-------------------------------------------------| 
|----16----------15----------16----------15-------| 
|-------15----------13----------15----------13----| 
|-17-------17-15-------15-17-------17-15-------15-| 
|-------------------------------------------------| 
|-------------------------------------------------| 
 
 
   S  S  S  S  S  S  S  S  S  S  S  S  S  S  S  S 
|----20----------19----------20-19-18-17-16-15-14-| 
|-------20----------18----------------------------| 
|----------20-19-------19-17----------------------| 
|-17----------------------------------------------| 
|-------------------------------------------------| 
|-------------------------------------------------| 
 
 
   S  S  S  S S S S S S S S S S S S S   S S S S S S S S S  S  S  S  S  S  S  S 
|-13-12-11-10-9-8-7-6-5-4-3-2-1-0-----|---0-5-3---3-1-----16-15-14-13-12-11-10-| 
|---------------------------------4-3-|-1-------------3-1----------------------| 
|-------------------------------------|---------4------------------------------| 
|-------------------------------------|----------------------------------------| 
|-------------------------------------|----------------------------------------| 
|-------------------------------------|----------------------------------------| 
 
 
  S S S S S S S S S S S S S S S S   S S S S S S S S S S S S S S S S 
|-9-8-7-6-5-4-3-2-1-0-------------|-----1-------------4-------------| 
|---------------------4-3-2-1-0---|---1---4---4-2---1---4-----6-4---| 
|-------------------------------3-|-1-------------3-------5-------5-| 
|---------------------------------|---------5---------------7-------| 
|---------------------------------|---------------------------------| 
|---------------------------------|---------------------------------| 
 
 
  S S S S S S S S S S S S  S  S  S  S 
|---6-------4-------8-----------------| 
|-----6-------6-------8---------------| 
|-3-----6-4-----7-5-----9----12-10----| 
|-------------------------11-------11-| 
|-------------------------------------| 
|-------------------------------------| 
 
 
  S S S S S  S  S  S  S  S  S  S  S S S S 
|-------8---12----19----------------1-4-6-| 
|---8-----8----13----21-------------------| 
|-----9-----------------22----------------| 
|-9------------------------22-------------| 
|-----------------------------23----------| 
|--------------------------------24-------| 
 
 
  S S S S S S S  S E  S  S  S  S  S  S 
|---------5-6-9------------10-11-15-16-| 
|-4-2-1---------11-9-------------------| 
|-------3------------10----------------| 
|-----------------------11-------------| 
|--------------------------------------| 
|--------------------------------------| 
 
 
   S  S  E  S  S  S  S  S  S  S  S  S  S S S 
|---------------------------------------------| 
|-16-------------------------------------9-7--| 
|----17----------------------13-------11------| 
|-------18-17-18----------15----15-13---------| 
|-------------22-18-16-16---------------------| 
|---------------------------------------------| 
 
 
  S S S S S S S S S S S S S S S S   S S S S S S S S S S S S S S S S 
|---9-8-6-4-2-1-----1-4-----4-7---|-----7-------6-------6-----4-6-4-| 
|-6-------------4-2-----6-------9-|---9---9---7---7---8---8-6-------| 
|-------------------------6-------|-7-------8-------8---------------| 
|---------------------------------|---------------------------------| 
|---------------------------------|---------------------------------| 
|---------------------------------|---------------------------------| 
 
 
  S  S  S S S S S S S S S S S S S  S 
|-3-11-10-8-6-4-3-1---3-6-----6-9----| 
|-------------------4-----8-------11-| 
|---------------------------8--------| 
|------------------------------------| 
|------------------------------------| 
|------------------------------------| 
 
 
  S  S S  S  S S S S S  S  S  S  S  S  S  S 
|------9---------8-----11----------13-------| 
|---11---11----9---9-7----13----------14----| 
|-9---------10---------------11-10-------15-| 
|-------------------------------------------| 
|-------------------------------------------| 
|-------------------------------------------| 
 
 
   S  S  S  S  S  S  S  S  S  S  S  S  S  S  S  S 
|----13-------14----------------------------------| 
|-------15-------16-------17----------------------| 
|-13----------------17-15-------18----15----------| 
|----------16----------------17----16----13-11----| 
|----------------------------------------------12-| 
|-------------------------------------------------| 
 
 
   S  S  S  S  S  S  S  S  S  S  S  S  S  S  S  S 
|-------------------------------------------------| 
|-------------------------------------------------| 
|-------16----------16-------18-------------------| 
|----16----16----16----16-------20----------------| 
|-14-18----18-14-18----18-18-------22-------------| 
|-------------------------------------24-21-18-15-| 
 
 
   S  S  S  S  S  S  S  S  S  S  S  S  S  S  S  S 
|-------------------------------------------------| 
|-------------------------------------------12-10-| 
|-------------------------------16-------14-------| 
|-------18----------18-------18----18-16----------| 
|----18----18----18----18-19----------------------| 
|-16-20----20-16-20----20-------------------------| 
 
 
  E  S  S  S S  S  S  S S  S  S  S  S  S  S 
|---12-------8-12-------9-13-------10-14----| 
|-9-10-12-10------13-11------14-12-------15-| 
|-------------------------------------------| 
|-------------------------------------------| 
|-------------------------------------------| 
|-------------------------------------------| 
 
 
   S  S  S  S  S  S  S  S  S  S  S  S  S  S  S  S 
|----11-16-------12-15-------19-------------19----| 
|-13-------16-14-------17-16-19-19-------21----21-| 
|----------------------------------20-21----------| 
|-------------------------------------------------| 
|-------------------------------------------------| 
|-------------------------------------------------| 
 
 
   S  S  S  S  S  S  S  S  S  S  S  S  S  S  S  S 
|-------18----------19----------16----------17----| 
|----20----20----19----19----18----18----17----17-| 
|-21----------20----------19----------18----------| 
|-------------------------------------------------| 
|-------------------------------------------------| 
|-------------------------------------------------| 
 
 
   S  S  S  S  S  S  S  S  S  S  S  S  S  S  S  S 
|-------14----------15----------12----------13----| 
|----16----16----15----15----14----14----13----13-| 
|-17----------16----------15----------14----------| 
|-------------------------------------------------| 
|-------------------------------------------------| 
|-------------------------------------------------| 
 
 
   S  S  S  S  S  S  S  S  S  S S  S  S  S  S  S 
|-------11----------12----------9----------10----| 
|----13----13----12----12----11---11----10----10-| 
|-14----------13----------12---------11----------| 
|------------------------------------------------| 
|------------------------------------------------| 
|------------------------------------------------| 
 
 
   S  S  S  S  S  S  S  S  S  S  S  S  S  S  S  S 
|-------10----------11----11----11----11----12----| 
|----10----10----10----10----10----10----10----12-| 
|-10----------10----------------------------------| 
|-------------------------------------------------| 
|-------------------------------------------------| 
|-------------------------------------------------| 
 
 
 6/4 
   S  S  E  S  S  S  S  S  S  S  S  S  S  S  S  S  S  S  S  S  S  S  S 
|-------12-12----------------------------------------------16----------| 
|----12-------12----------15----------15----------------17----17-------| 
|-13-------------13----16----16----16----16----------16----------16----| 
|-------------------15----------15----------18----18----------------18-| 
|----------------------------------------------19----------------------| 
|----------------------------------------------------------------------| 
 
 
 4/4 
   S  S  S  S  S  S  S  S  S  S  S  S  S  S S S 
|----------------------------17-15-13-12-10-8-7-| 
|-------17-------15-17-15-13--------------------| 
|----17----17-16--------------------------------| 
|-19--------------------------------------------| 
|-----------------------------------------------| 
|-----------------------------------------------| 
 
 
  S S  S  S  S  S  S  S S  S  S  S  S  S S  S 
|-5-8-12-------10-12-10-8-17-15-13-12-10-9-----| 
|--------13-12-----------------------------10--| 
|----------------------------------------------| 
|----------------------------------------------| 
|----------------------------------------------| 
|----------------------------------------------| 
 
 
   S  S  S  S  S S S S S  S  S  S S S S S   S  S  S S S S S S S  S S S S S S S 
|-10-15-13-12-10-8-7---8-13-12-10-8-7-5-4-|-7-12-10-8-7-5-4---5-10-8-7-5-3-1-0-| 
|--------------------8--------------------|-----------------5------------------| 
|-----------------------------------------|------------------------------------| 
|-----------------------------------------|------------------------------------| 
|-----------------------------------------|------------------------------------| 
|-----------------------------------------|------------------------------------| 
 
 
  S  S  S  S  S  S  S  S  E  S  S  S  S  S  S 
|---11----------------------------------------| 
|-4----13----------------17-------------------| 
|---------14----------------17----------------| 
|------------16----------------19-------------| 
|---------------18----------------19----------| 
|------------------20-17-------------20-17-13-| 
 
 
   S  S  S  S  S  S  S  S  S  S  S  S  S  S  S  S 
|-13-------------------------17-16-15-14-13-12-11-| 
|----15-------------------------------------------| 
|-------16----------------------------------------| 
|----------18-------------------------------------| 
|-------------20----------------------------------| 
|----------------22-19-16-17----------------------| 
 
 
   S S S S S S S S S S S S S S S S   S S S S S S S S S S S S S S S S 
|-10-9-8-7-6-5-4-3-2-1-0-----------|-----1-0-------------0-----1-----| 
|------------------------4-3-2-1-0-|---1-------0-3-----1---3-1-----0-| 
|----------------------------------|-2-------1-----4-2-----------1---| 
|----------------------------------|---------------------------------| 
|----------------------------------|---------------------------------| 
|----------------------------------|---------------------------------| 
 
 
  S S S S S S S S S S S S S S S S   S S S S S S S S H      +W 
|-----------0---------------0-----|-----------0----------|--------| 
|---1-0-3-1-----0---1-0-3-1-----0-|---1-0-3-1-----0------|--------| 
|-2-----------1---2-----------1---|-2-----------1---2----|-(2)----| 
|---------------------------------|----------------------|--------| 
|---------------------------------|----------------------|--------| 
|---------------------------------|----------------------|--------| 
 
 
  S S S S S S S  S  S  S  S  S  +Q 
|---0-5-------5-------------17-(17)--*| 
|---1---5---5---17-------17----------*| 
|-2-----5---5---17-------------------*| 
|---------7--------19-19-------------*| 
|---------------------19-------------*| 
|------------------------------------*| 
Transcrito por Júlio Vallim, música,Pagannini. 

roll up this ad to continue

share this page

See Also: