E-Chords
Jacob Miller

Baby, I love you so(Tabs)

Jacob Miller

roll up this ad to continue

Key: Abm
Intro - Chorus : 
|    Abm     Abm     Dbm     Dbm  |    Abm     Abm     Dbm     Dbm  |
|---------------------------------|---------------------------------|
|-6-4-----------------------------|---------------------------------|
|-----6-4-------5-4-4-------------|---4-4---------5-4-4-------------|
|---------4---7-------------------|-7-----7-6-4-7-------------------|


Verse : 

|    Ebm     Ebm     Dbm     Dbm  | x3
|-------8-------------------------|
|-----8---8---8-8-----------------|
|-6-6-------6---------------------|
|-----------------9-9-------------|

|    Dbm     Dbm     Dbm     Dbm  |
|-6-4-----------------------------|
|-----6-4-------6-----------------|
|---------4---7---4---------------|
|---------------------------------|
share this page

See Also: