E-Chords
Jack Jones

Tape Deck(Tabs)

Jack Jones

Key: Bb
Tabbed by Tofu ([email protected]) 
Artist: Jack Johnson 
Song: Tape Deck 

Jack playes this in Open Bb tuning since he's rockin' the guitar slide. 

|--D--| 
|--Bb-| 
|--F--| 
|--D--| 
|--Bb-| 
|--D--| 

The entire song uses these 3 open chords with hammer ons the 4th string throughout. 

Chords: 

  Bb        Eb         F 
|--0--|   |--5--|   |--7--| 
|--0--|   |--5--|   |--7--| 
|--0--|   |--5--|   |--7--| 
|--0--|   |--5--|   |--7--| 
|--0--|   |--5--|   |--7--| 
|--0--|   |--5--|   |--7--| 


You pick up on the exact strumming pattern and hammers by listening to the song, but  
they go something like below. 

Verse: 
            Bb                  Eb                  Eb               F 
e|---0--0--0--0--0--0----5--5--5--5--5--5----5--5--5--5--5--5----7--7--7--7----| 
B|---0--0--0--0--0--0----5--5--5--5--5--5----5--5--5--5--5--5----7--7--7--7----| 
G|---0--0--2--0--0--2----5--5--7--5--5--7----5--5--7--5--5--7----9--9--9--7----| 
D|---0--0--0--0--0--0----5--5--5--5--5--5----5--5--5--5--5--5----7--7--7--7----| 
A|---0--0--0--0--0--0----5--5--5--5--5--5----5--5--5--5--5--5----7--7--7--7----| 
E|---0--0--0--0--0--0----5--5--5--5--5--5----5--5--5--5--5--5----7--7--7--7----| 

Transition to Pre-Chrous, just after the line 'We sounded folk but we wanted to be punk...' 

e|---7----6----5----| 
B|---7----6----5----| 
G|---9----8----7----| 
D|---7----6----5----| 
A|---7----6----5----| 
E|---7----6----5----| 

Pre-Chorus (You can also mix in the transition walk down) 

e|---5--5--5--5--5--5----7--7--7--7--7--7--| 
B|---5--5--5--5--5--5----7--7--7--7--7--7--| 
G|---7--7--5--7--7--5----9--9--7--9--9--7--| 
D|---5--5--5--5--5--5----7--7--7--7--7--7--| 
A|---5--5--5--5--5--5----7--7--7--7--7--7--| 
E|---5--5--5--5--5--5----7--7--7--7--7--7--| 

Chorus: 
            Bb                  Eb                  F                   Eb 
e|---0--0--0--0--0--0----5--5--5--5--5--5----7--7--7--7--7--7----5--5--5--5--5--5--| 
B|---0--0--0--0--0--0----5--5--5--5--5--5----7--7--7--7--7--7----5--5--5--5--5--5--| 
G|---0--0--2--0--0--2----5--5--7--5--5--7----7--7--9--7--7--9----5--5--7--5--5--7--| 
D|---0--0--0--0--0--0----5--5--5--5--5--5----7--7--7--7--7--7----5--5--5--5--5--5--| 
A|---0--0--0--0--0--0----5--5--5--5--5--5----7--7--7--7--7--7----5--5--5--5--5--5--| 
E|---0--0--0--0--0--0----5--5--5--5--5--5----7--7--7--7--7--7----5--5--5--5--5--5--| 

Slide Guitar Solo: 

e|-0-/-12-12-12-12-12-12-12-12-12-12-12---5----0----5-\-0-----/-5-5-5-5-5-5-5-5-5-5-5-| 
B|-0-/-12-12-12-12-12-12-12-12-12-12-12---5----0----5-\-0-----/-5-5-5-5-5-5-5-5-5-5-5-| 
G|-0-/-12-12-12-12-12-12-12-12-12-12-12---5----0----5-\-0-----/-5-5-5-5-5-5-5-5-5-5-5-| 
D|-0-/-12-12-12-12-12-12-12-12-12-12-12---5----0----5-\-0-----/-5-5-5-5-5-5-5-5-5-5-5-| 
A|-0-/-12-12-12-12-12-12-12-12-12-12-12---5----0----5-\-0-----/-5-5-5-5-5-5-5-5-5-5-5-| 
E|-0-/-12-12-12-12-12-12-12-12-12-12-12---5----0----5-\-0-----/-5-5-5-5-5-5-5-5-5-5-5-| 

e|-----5-/-7----5-/-7-----5-/-7----------------| 
B|-----5-/-7----5-/-7-----5-/-7----------------| 
G|-----5-/-7----5-/-7-----5-/-7----------------| 
D|-----5-/-7----5-/-7-----5-/-7----------------| 
A|-----5-/-7----5-/-7-----5-/-7----------------| 
W|-----5-/-7----5-/-7-----5-/-7----------------| 

roll up this ad to continue

share this page

See Also: