E-Chords
J. Mascis

Too Deep(Tabs)

J. Mascis

roll up this ad to continue

Key: E
e|-------------------------------------------------------| 
B|-------------------------------------------------------| 
G|-------------------------------------------------------| 
D|-----9-------9--------9--------9-----------------------|2x 
A|-7-7---7-7-7---7--5-5----5-5-5-------------------------| 
E|-------------------------------------------------------| 

e|-------------------------------------------------------| 
B|-------------------------------------------------------| 
G|-------------------------------------------------------| 
D|-------------------------------------------------------|2x 
A|-----7-------7-------9--------9------------------------| 
E|-5-5---5-5-5-----7-7----7-7-7--------------------------| 


Ending 
e|-------------------------------------------------------| 
B|-------------------------------------------------------| 
G|-------------------------------------------------------| 
D|----9~-------------------------------------------------| 
A|----5~-------------------------------------------------| 
E|-------------------------------------------------------| 
share this page

See Also: