E-Chords
InuYasha

Every Heart(Tabs)

InuYasha

Legenda: 
^  = levantar a corda 
 
 
e:--------------------------|--------------------------------| 
b:12-11-10-12-11-10---14-13~|--------------------------------| 
g:--------------------------|7--9--10---10-9-8-7-6--5--4---4~| 
D:--------------------------|--------------------------------| 
A:--------------------------|--------------------------------| 
E:--------------------------|--------------------------------| 
 
e:---------------------------------------------| 
b:---------------------------------------------| 
g:7--9--10---10-9-8-9-10-10---11--12-12-12-10-8| 
D:---------------------------------------------| 
A:---------------------------------------------| 
E:---------------------------------------------| 
 
e:-------------------------------------------| 
b:8-10-11--11-10--8--11-11-10--9--6--8-7-6-5~| 
g:-------------------------------------------| 
D:-------------------------------------------| 
A:-------------------------------------------| 
E:-------------------------------------------| 
 
e:-------------------------------------------| 
b:8-10-11--11-10--8--11-11-10--12--13~-------| 
g:-------------------------------------------| 
D:-------------------------------------------| 
A:-------------------------------------------| 
E:-------------------------------------------| 
 
_______________________________________________________________________ 
 
e:----------------------------------------------| 
b:9--9--11--12---14~--13--12--11---10--10-8-7-8^| 
g:----------------------------------------------| 
D:----------------------------------------------| 
A:----------------------------------------------| 
E:----------------------------------------------| 
 
 
e:--------------------------------------------------| 
b:9--9--11--12---14~--13--12--11---10-10-12--13--14^| 
g:--------------------------------------------------| 
D:--------------------------------------------------| 
A:--------------------------------------------------| 
E:--------------------------------------------------| 
 
 
e:-------------------------------------------- | 
b:9--9--11--12---14--13--12--11---10--10-8-7-8^| 
g:-------------------------------------------- | 
D:-------------------------------------------- | 
A:-------------------------------------------- | 
E:-------------------------------------------- | 
 
 
e:-------------------------------------------------| 
b:9--9--11--12---14--13--12--11---10-10-12--13--14^| 
g:-------------------------------------------------| 
D:-------------------------------------------------| 
A:-------------------------------------------------| 
E:-------------------------------------------------| 

roll up this ad to continue

share this page

See Also: