E-Chords
Intercooler

Goodness Of The Girl(Tabs)

Intercooler

roll up this ad to continue

Transcribed by Paul @ OzTabs ([email protected]) 
www.ozmusic-central.com.au/oztabs 
 
Here's the three main parts to the song - listen to it to 
find out how it all fits together. Comments & Corrections  
are welcome! 
 
 
MAIN PROGRESSION 
E-|---------------3--3--3-3---|- 
B-|-5--5--5-5-3---3--3--3-3-2-|- 
G-|-4--4--4-4-2---0--0--0-0-2-|- 
D-|-2--2--2-2-0---0--0--0-0-2-|- 
A-|-2--2--2-2-----x--x--x-x-0-|- 
E-|---------------3--3--3-3---|- 
 
MUTED BIT: 
E-|---------------|- 
B-|---------------|- 
G-|-x-x-x-x-x-9-9-|- 
D-|-x-x-x-x-x-9-9-|-(mute the strings with your freting hand on the 9th fret) 
A-|-x-x-x-x-x-7-7-|- 
E-|---------------|- 
 
CHORUS: 
E-|----------------------------------|- 
B-|----------------------------------|- 
G-|-9---8---7---2---5---7------7-8-9-|- 
D-|-9---8---7---2---5---7---2--7-8-9-|- 
A-|-7---6---5---0---3---5---2--5-6-7-|- 
E-|-------------------------0--------|- 
 
 
Tab courtesy of Oz Tabs - www.ozmusic-central.com.au/oztabs 
 
share this page

See Also: