E-Chords
Intercooler

Country(Tabs)

Intercooler

roll up this ad to continue

Key: G
Transcribed by Paul @ OzTabs ([email protected]) 
www.ozmusic-central.com.au/oztabs 
 
I haven't heard a studio version of this song, just the 
live version they played on triple j's Oz Music Show (Nov 2002).  
I'm fairly sure it wouldn't be too different from the studio 
version. Comments & Corrections are welcome! 
 
! 
 
INTRO: 
E-|-3------3-3------3-2------2-2------|- 
B-|---3--------3--------3--------3----|- 
G-|-----2--------2--------2--------2--|- 
D-|-----------------------------------|- 
A-|-----------------------------------|- 
E-|-----------------------------------|- 
 
VERSE CHORDS: 
    G           D 
E-|-3---3---3-3-2-|- 
B-|-3---3---3-3-3-|- 
G-|-0---0---0-0-2-|- 
D-|-0---0---0-0-0-|-(play numerous times) 
A-|-2---2---2-2---|- 
E-|-3---3---3-3---|- 
 
CHORUS:  
    G            C            D            D 
E-|-3--3--3--3-|-0--0--0--0-|-2--2--2--2-|-2--2--2--2-|- 
B-|-3--3--3--3-|-1--1--1--1-|-3--3--3--3-|-3--3--3--3-|- 
G-|-0--0--0--0-|-0--0--0--0-|-2--2--2--2-|-2--2--2--2-|- 
D-|-0--0--0--0-|-2--2--2--2-|-0--0--0--0-|-0--0--0--0-|- 
A-|-2--2--2--2-|-3--3--3--3-|------------|------------|- 
E-|-3--3--3--3-|------------|------------|------------|- 
 
    C            C     B/C    Dsus         D 
E-|-0--0--0--0-|-0--0--0--0-|-3--3--3--3-|-2--2--2--2-|- 
B-|-1--1--1--1-|-1--1--1--1-|-3--3--3--3-|-3--3--3--3-|- 
G-|-0--0--0--0-|-0--0--0--0-|-2--2--2--2-|-2--2--2--2-|- 
D-|-2--2--2--2-|-2--2--0--0-|-0--0--0--0-|-0--0--0--0-|- 
A-|-3--3--3--3-|-3--3--2--2-|------------|------------|- 
E-|------------|------------|------------|------------|- 
 
KEY CHANGE BIT: 
    F           C 
E-|-1---1---1-1-0-|- 
B-|-1---1---1-1-1-|- 
G-|-2---2---2-2-0-|- 
D-|-3---3---3-3-2-|-(play four times) 
A-|-3---3---3-3-3-|- 
E-|-1---1---1-1---|- 
 
So that's all the progressions in the song, the last chorus after 
playing it twice through repeats the last last four bars of the chorus 
a few times (the C B/C Dsus D progression). 
 
 
Tab courtesy of Oz Tabs - www.ozmusic-central.com.au/oztabs 
 
share this page

See Also: