E-Chords
Instinction

Power(Tabs)

Instinction

roll up this ad to continue

 
By:Jesse Nyboe 
 
 
Ijust made this up i think it sounds really messed up but..you do need drums 
and all to go with it.You Need to also use a wah and disorted circle effects too. 
 
 
 
e----------------------------------------------------0--------------- 
B-----------------------------------------0-----------0-------------- 
G------------5--------------------------2---2----------0------------- 
D-----2-----4--5----------------------4-------4---------------------- 
A----2-----3-----4-----2h3p2------5h6-----------0-------------------- 
E---0---------------0---------0-----------------------------0-------- 
 
 
 
 
e------------------------------------------------------------------- 
B------------------------------------------------------------------- 
G------------------------------------------------------------------- 
D----2-x-xx-4-x--3-5------------------------------------------------ 
A---2-x-xx-4-x--3-5------------------------------------------------- 
E--0-x-xx-2-x--1-3-------------------------------------------------- 
 
 
 
 
e------------------------------------------------------------------- 
B------7--------------------5----------------20t19t15t20t19t15------ 
G-----6-7------------------8-5-------------------------------------- 
D----6---7----------------9---3------------------------------------- 
A---5-----6--------------0-----4------------------------------------ 
E--5-------6--9-0-6-0-4-0-------6-8h7p8----------------------------- 
 
 
Thats it...any [email protected] 
 
share this page

See Also: